  0
SECTION
  2
HEADER
  9
$ACADVER
  1
AC1014
  9
$ACADMAINTVER
 70
     5
  9
$DWGCODEPAGE
  3
ANSI_1252
  9
$INSBASE
 10
0.0
 20
0.0
 30
0.0
  9
$EXTMIN
 10
-509.243763
 20
-8.842329
 30
0.0
  9
$EXTMAX
 10
29.658916
 20
611.547655
 30
0.0
  9
$LIMMIN
 10
0.0
 20
0.0
  9
$LIMMAX
 10
420.0
 20
297.0
  9
$ORTHOMODE
 70
     1
  9
$REGENMODE
 70
     1
  9
$FILLMODE
 70
     1
  9
$QTEXTMODE
 70
     0
  9
$MIRRTEXT
 70
     0
  9
$DRAGMODE
 70
     2
  9
$LTSCALE
 40
1.0
  9
$OSMODE
 70
    39
  9
$ATTMODE
 70
     1
  9
$TEXTSIZE
 40
3.5
  9
$TRACEWID
 40
0.05
  9
$TEXTSTYLE
  7
ROMANS
  9
$CLAYER
  8
0
  9
$CELTYPE
  6
BYLAYER
  9
$CECOLOR
 62
   256
  9
$CELTSCALE
 40
1.0
  9
$DELOBJ
 70
     1
  9
$DISPSILH
 70
     0
  9
$DIMSCALE
 40
1.0
  9
$DIMASZ
 40
2.5
  9
$DIMEXO
 40
1.5
  9
$DIMDLI
 40
5.0
  9
$DIMRND
 40
0.0
  9
$DIMDLE
 40
0.0
  9
$DIMEXE
 40
1.0
  9
$DIMTP
 40
0.0
  9
$DIMTM
 40
0.0
  9
$DIMTXT
 40
3.0
  9
$DIMCEN
 40
0.0
  9
$DIMTSZ
 40
0.0
  9
$DIMTOL
 70
     0
  9
$DIMLIM
 70
     0
  9
$DIMTIH
 70
     0
  9
$DIMTOH
 70
     0
  9
$DIMSE1
 70
     0
  9
$DIMSE2
 70
     0
  9
$DIMTAD
 70
     1
  9
$DIMZIN
 70
     8
  9
$DIMBLK
  1

  9
$DIMASO
 70
     1
  9
$DIMSHO
 70
     1
  9
$DIMPOST
  1

  9
$DIMAPOST
  1

  9
$DIMALT
 70
     0
  9
$DIMALTD
 70
     2
  9
$DIMALTF
 40
25.4
  9
$DIMLFAC
 40
1.0
  9
$DIMTOFL
 70
     1
  9
$DIMTVP
 40
0.0
  9
$DIMTIX
 70
     0
  9
$DIMSOXD
 70
     0
  9
$DIMSAH
 70
     0
  9
$DIMBLK1
  1

  9
$DIMBLK2
  1

  9
$DIMSTYLE
  2
STANDAARD
  9
$DIMCLRD
 70
   256
  9
$DIMCLRE
 70
   256
  9
$DIMCLRT
 70
     2
  9
$DIMTFAC
 40
0.75
  9
$DIMGAP
 40
1.0
  9
$DIMJUST
 70
     0
  9
$DIMSD1
 70
     0
  9
$DIMSD2
 70
     0
  9
$DIMTOLJ
 70
     1
  9
$DIMTZIN
 70
     8
  9
$DIMALTZ
 70
     8
  9
$DIMALTTZ
 70
     8
  9
$DIMFIT
 70
     0
  9
$DIMUPT
 70
     0
  9
$DIMUNIT
 70
     2
  9
$DIMDEC
 70
     2
  9
$DIMTDEC
 70
     2
  9
$DIMALTU
 70
     2
  9
$DIMALTTD
 70
     2
  9
$DIMTXSTY
  7
ROMANS
  9
$DIMAUNIT
 70
     0
  9
$LUNITS
 70
     2
  9
$LUPREC
 70
     2
  9
$SKETCHINC
 40
0.1
  9
$FILLETRAD
 40
10.0
  9
$AUNITS
 70
     0
  9
$AUPREC
 70
     2
  9
$MENU
  1
wtb2
  9
$ELEVATION
 40
0.0
  9
$PELEVATION
 40
0.0
  9
$THICKNESS
 40
0.0
  9
$LIMCHECK
 70
     0
  9
$BLIPMODE
 70
     0
  9
$CHAMFERA
 40
1.6
  9
$CHAMFERB
 40
2.5
  9
$CHAMFERC
 40
0.0
  9
$CHAMFERD
 40
0.0
  9
$SKPOLY
 70
     0
  9
$TDCREATE
 40
2452466.423157523
  9
$TDUPDATE
 40
2452466.674022361
  9
$TDINDWG
 40
0.0041317593
  9
$TDUSRTIMER
 40
0.0041317593
  9
$USRTIMER
 70
     1
  9
$ANGBASE
 50
0.0
  9
$ANGDIR
 70
     0
  9
$PDMODE
 70
     3
  9
$PDSIZE
 40
0.0
  9
$PLINEWID
 40
0.0
  9
$COORDS
 70
     2
  9
$SPLFRAME
 70
     0
  9
$SPLINETYPE
 70
     6
  9
$SPLINESEGS
 70
     8
  9
$ATTDIA
 70
     0
  9
$ATTREQ
 70
     1
  9
$HANDLING
 70
     1
  9
$HANDSEED
  5
13C2
  9
$SURFTAB1
 70
     6
  9
$SURFTAB2
 70
     6
  9
$SURFTYPE
 70
     6
  9
$SURFU
 70
     6
  9
$SURFV
 70
     6
  9
$UCSNAME
  2

  9
$UCSORG
 10
0.0
 20
0.0
 30
0.0
  9
$UCSXDIR
 10
1.0
 20
0.0
 30
0.0
  9
$UCSYDIR
 10
0.0
 20
1.0
 30
0.0
  9
$PUCSNAME
  2

  9
$PUCSORG
 10
0.0
 20
0.0
 30
0.0
  9
$PUCSXDIR
 10
1.0
 20
0.0
 30
0.0
  9
$PUCSYDIR
 10
0.0
 20
1.0
 30
0.0
  9
$USERI1
 70
     0
  9
$USERI2
 70
     0
  9
$USERI3
 70
     0
  9
$USERI4
 70
     0
  9
$USERI5
 70
     0
  9
$USERR1
 40
0.0
  9
$USERR2
 40
0.0
  9
$USERR3
 40
0.0
  9
$USERR4
 40
0.0
  9
$USERR5
 40
0.0
  9
$WORLDVIEW
 70
     1
  9
$SHADEDGE
 70
     3
  9
$SHADEDIF
 70
    70
  9
$TILEMODE
 70
     1
  9
$MAXACTVP
 70
    16
  9
$PINSBASE
 10
0.0
 20
0.0
 30
0.0
  9
$PLIMCHECK
 70
     0
  9
$PEXTMIN
 10
1.000000E+20
 20
1.000000E+20
 30
1.000000E+20
  9
$PEXTMAX
 10
-1.000000E+20
 20
-1.000000E+20
 30
-1.000000E+20
  9
$PLIMMIN
 10
0.0
 20
0.0
  9
$PLIMMAX
 10
12.0
 20
9.0
  9
$UNITMODE
 70
     0
  9
$VISRETAIN
 70
     0
  9
$PLINEGEN
 70
     0
  9
$PSLTSCALE
 70
     0
  9
$TREEDEPTH
 70
  3020
  9
$PICKSTYLE
 70
     1
  9
$CMLSTYLE
  2
STANDARD
  9
$CMLJUST
 70
     0
  9
$CMLSCALE
 40
1.0
  9
$PROXYGRAPHICS
 70
     1
  9
$MEASUREMENT
 70
     1
  0
ENDSEC
  0
SECTION
  2
CLASSES
  0
CLASS
  1
LWPOLYLINE
  2
AcDbPolyline
  3
"AutoCAD"
 90
        0
280
     0
281
     1
  0
CLASS
  1
AMLOADER
  2
AMLoader
  3
AMAcad
 90
        0
280
     0
281
     0
  0
ENDSEC
  0
SECTION
  2
TABLES
  0
TABLE
  2
VPORT
  5
8
100
AcDbSymbolTable
 70
     2
  0
VPORT
  5
13C1
100
AcDbSymbolTableRecord
100
AcDbViewportTableRecord
  2
*ACTIVE
 70
     0
 10
0.0
 20
0.0
 11
1.0
 21
1.0
 12
-239.792424
 22
301.352663
 13
0.0
 23
0.0
 14
2.5
 24
2.5
 15
5.0
 25
5.0
 16
0.0
 26
0.0
 36
1.0
 17
0.0
 27
0.0
 37
0.0
 40
627.373736
 41
1.650376
 42
50.0
 43
0.0
 44
0.0
 50
0.0
 51
0.0
 71
     0
 72
 20000
 73
     1
 74
     0
 75
     0
 76
     0
 77
     0
 78
     1
  0
ENDTAB
  0
TABLE
  2
LTYPE
  5
5
100
AcDbSymbolTable
 70
     1
  0
LTYPE
  5
12
100
AcDbSymbolTableRecord
100
AcDbLinetypeTableRecord
  2
BYBLOCK
 70
     0
  3

 72
    65
 73
     0
 40
0.0
  0
LTYPE
  5
13
100
AcDbSymbolTableRecord
100
AcDbLinetypeTableRecord
  2
BYLAYER
 70
     0
  3

 72
    65
 73
     0
 40
0.0
  0
LTYPE
  5
14
100
AcDbSymbolTableRecord
100
AcDbLinetypeTableRecord
  2
CONTINUOUS
 70
     0
  3
Solid line
 72
    65
 73
     0
 40
0.0
  0
ENDTAB
  0
TABLE
  2
LAYER
  5
2
100
AcDbSymbolTable
 70
     4
  0
LAYER
  5
F
100
AcDbSymbolTableRecord
100
AcDbLayerTableRecord
  2
0
 70
     0
 62
     8
  6
CONTINUOUS
  0
LAYER
  5
99A
100
AcDbSymbolTableRecord
100
AcDbLayerTableRecord
  2
VHH-050
 70
     0
 62
     4
  6
CONTINUOUS
  0
LAYER
  5
99B
100
AcDbSymbolTableRecord
100
AcDbLayerTableRecord
  2
VHH-025
 70
     0
 62
     7
  6
CONTINUOUS
  0
LAYER
  5
99C
100
AcDbSymbolTableRecord
100
AcDbLayerTableRecord
  2
VHH-070
 70
     0
 62
     4
  6
CONTINUOUS
  0
ENDTAB
  0
TABLE
  2
STYLE
  5
3
100
AcDbSymbolTable
 70
     2
  0
STYLE
  5
10
100
AcDbSymbolTableRecord
100
AcDbTextStyleTableRecord
  2
STANDARD
 70
     0
 40
0.0
 41
1.0
 50
0.0
 71
     0
 42
15.0
  3
txt
  4

  0
STYLE
  5
1C
100
AcDbSymbolTableRecord
100
AcDbTextStyleTableRecord
  2
ROMANS
 70
     0
 40
0.0
 41
1.0
 50
0.0
 71
     0
 42
3.5
  3
romans
  4

  0
ENDTAB
  0
TABLE
  2
VIEW
  5
6
100
AcDbSymbolTable
 70
     2
  0
VIEW
  5
600
100
AcDbSymbolTableRecord
100
AcDbViewTableRecord
  2
VIEW0
 70
     0
 40
297.0
 10
210.0
 20
148.5
 41
420.0
 11
0.0
 21
0.0
 31
1.0
 12
0.0
 22
0.0
 32
0.0
 42
50.0
 43
0.0
 44
0.0
 50
0.0
 71
     0
  0
VIEW
  5
601
100
AcDbSymbolTableRecord
100
AcDbViewTableRecord
  2
VIEW1
 70
     0
 40
297.0
 10
210.0
 20
148.5
 41
420.0
 11
0.0
 21
0.0
 31
1.0
 12
0.0
 22
0.0
 32
0.0
 42
50.0
 43
0.0
 44
0.0
 50
0.0
 71
     0
  0
ENDTAB
  0
TABLE
  2
UCS
  5
7
100
AcDbSymbolTable
 70
     0
  0
ENDTAB
  0
TABLE
  2
APPID
  5
9
100
AcDbSymbolTable
 70
     3
  0
APPID
  5
11
100
AcDbSymbolTableRecord
100
AcDbRegAppTableRecord
  2
ACAD
 70
     0
  0
APPID
  5
37E
100
AcDbSymbolTableRecord
100
AcDbRegAppTableRecord
  2
ADMEPROFILELINK
 70
     0
  0
APPID
  5
974
100
AcDbSymbolTableRecord
100
AcDbRegAppTableRecord
  2
AMACAD
 70
     0
  0
ENDTAB
  0
TABLE
  2
DIMSTYLE
  5
A
100
AcDbSymbolTable
 70
     2
  0
DIMSTYLE
105
4E
100
AcDbSymbolTableRecord
100
AcDbDimStyleTableRecord
  2
STANDARD
 70
     0
  3

  4

  5

  6

  7

 40
1.0
 41
2.2
 42
1.5
 43
7.0
 44
1.2
 45
0.0
 46
0.0
 47
0.0
 48
0.0
140
2.5
141
-3.0
142
0.0
143
25.4
144
1.0
145
0.0
146
1.0
147
0.5
 71
     0
 72
     0
 73
     0
 74
     0
 75
     0
 76
     0
 77
     1
 78
     8
170
     0
171
     2
172
     1
173
     0
174
     0
175
     0
176
   256
177
   256
178
     2
270
     2
271
     4
272
     4
273
     2
274
     2
340
10
275
     0
280
     0
281
     0
282
     0
283
     1
284
     0
285
     0
286
     0
287
     3
288
     0
  0
DIMSTYLE
105
190
100
AcDbSymbolTableRecord
100
AcDbDimStyleTableRecord
  2
STANDAARD
 70
     0
  3

  4

  5

  6

  7

 40
1.0
 41
2.5
 42
1.5
 43
5.0
 44
1.0
 45
0.0
 46
0.0
 47
0.0
 48
0.0
140
3.0
141
0.0
142
0.0
143
25.4
144
1.0
145
0.0
146
0.75
147
1.0
 71
     0
 72
     0
 73
     0
 74
     0
 75
     0
 76
     0
 77
     1
 78
     8
170
     0
171
     2
172
     1
173
     0
174
     0
175
     0
176
   256
177
   256
178
     2
270
     2
271
     2
272
     2
273
     2
274
     2
340
1C
275
     0
280
     0
281
     0
282
     0
283
     1
284
     8
285
     8
286
     8
287
     0
288
     0
  0
ENDTAB
  0
TABLE
  2
BLOCK_RECORD
  5
1
100
AcDbSymbolTable
 70
     4
  0
BLOCK_RECORD
  5
18
100
AcDbSymbolTableRecord
100
AcDbBlockTableRecord
  2
*MODEL_SPACE
  0
BLOCK_RECORD
  5
15
100
AcDbSymbolTableRecord
100
AcDbBlockTableRecord
  2
*PAPER_SPACE
  0
BLOCK_RECORD
  5
1B2
100
AcDbSymbolTableRecord
100
AcDbBlockTableRecord
  2
TEK_INFO
  0
BLOCK_RECORD
  5
98B
100
AcDbSymbolTableRecord
100
AcDbBlockTableRecord
  2
A$C7A7B4A19
  0
BLOCK_RECORD
  5
990
100
AcDbSymbolTableRecord
100
AcDbBlockTableRecord
  2
A$C605007EB
  0
BLOCK_RECORD
  5
995
100
AcDbSymbolTableRecord
100
AcDbBlockTableRecord
  2
A$C32063EEB
  0
ENDTAB
  0
ENDSEC
  0
SECTION
  2
BLOCKS
  0
BLOCK
  5
46
100
AcDbEntity
  8
0
100
AcDbBlockBegin
  2
*MODEL_SPACE
 70
     0
 10
0.0
 20
0.0
 30
0.0
  3
*MODEL_SPACE
  1

  0
ENDBLK
  5
47
100
AcDbEntity
  8
0
100
AcDbBlockEnd
  0
BLOCK
  5
44
100
AcDbEntity
 67
     1
  8
0
100
AcDbBlockBegin
  2
*PAPER_SPACE
 70
     0
 10
0.0
 20
0.0
 30
0.0
  3
*PAPER_SPACE
  1

  0
ENDBLK
  5
45
100
AcDbEntity
 67
     1
  8
0
100
AcDbBlockEnd
  0
BLOCK
  5
1B9
100
AcDbEntity
  8
0
100
AcDbBlockBegin
  2
TEK_INFO
 70
     2
 10
0.0
 20
0.0
 30
0.0
  3
TEK_INFO
  1

  0
ATTDEF
  5
276
100
AcDbEntity
  8
0
100
AcDbText
 10
15.0
 20
31.5
 30
0.0
 40
2.5
  1
A3
  7
ROMANS
100
AcDbAttributeDefinition
  3

  2
FORMAAT
 70
     9
  0
ATTDEF
  5
277
100
AcDbEntity
  8
0
100
AcDbText
 10
15.0
 20
27.5
 30
0.0
 40
2.5
  1
hor
  7
ROMANS
100
AcDbAttributeDefinition
  3

  2
POSITIE
 70
     9
  0
ATTDEF
  5
278
100
AcDbEntity
  8
0
100
AcDbText
 10
15.0
 20
23.5
 30
0.0
 40
2.5
  1
1
  7
ROMANS
100
AcDbAttributeDefinition
  3

  2
AANTAL
 70
     9
  0
ATTDEF
  5
279
100
AcDbEntity
  8
0
100
AcDbText
 10
15.0
 20
19.5
 30
0.0
 40
2.5
  1
1
  7
ROMANS
100
AcDbAttributeDefinition
  3

  2
TEKSCHAAL
 70
     9
  0
ATTDEF
  5
27A
100
AcDbEntity
  8
0
100
AcDbText
 10
15.0
 20
15.5
 30
0.0
 40
2.5
  1
1
  7
ROMANS
100
AcDbAttributeDefinition
  3

  2
SNAPSCHAAL
 70
     9
  0
ATTDEF
  5
27B
100
AcDbEntity
  8
0
100
AcDbText
 10
15.0
 20
11.5
 30
0.0
 40
2.5
  1
1
  7
ROMANS
100
AcDbAttributeDefinition
  3

  2
BLADAANTAL
 70
     9
  0
ENDBLK
  5
1BA
100
AcDbEntity
  8
0
100
AcDbBlockEnd
  0
BLOCK
  5
98E
100
AcDbEntity
  8
0
100
AcDbBlockBegin
  2
A$C7A7B4A19
 70
     0
 10
0.0
 20
0.0
 30
0.0
  3
A$C7A7B4A19
  1

  0
LINE
  5
98C
100
AcDbEntity
  8
VHH-050
100
AcDbLine
 10
0.000002
 20
17.677669
 30
0.0
 11
35.355341
 21
17.677669
 31
0.0
  0
LINE
  5
98D
100
AcDbEntity
  8
VHH-050
100
AcDbLine
 10
17.677671
 20
-0.000001
 30
0.0
 11
17.677671
 21
35.355338
 31
0.0
  0
ENDBLK
  5
98F
100
AcDbEntity
  8
0
100
AcDbBlockEnd
  0
BLOCK
  5
993
100
AcDbEntity
  8
0
100
AcDbBlockBegin
  2
A$C605007EB
 70
     0
 10
0.0
 20
0.0
 30
0.0
  3
A$C605007EB
  1

  0
LINE
  5
991
100
AcDbEntity
  8
VHH-050
100
AcDbLine
 10
0.000002
 20
25.000002
 30
0.0
 11
25.000002
 21
0.000002
 31
0.0
  0
LINE
  5
992
100
AcDbEntity
  8
VHH-050
100
AcDbLine
 10
0.000002
 20
0.000002
 30
0.0
 11
25.000002
 21
25.000002
 31
0.0
  0
ENDBLK
  5
994
100
AcDbEntity
  8
0
100
AcDbBlockEnd
  0
BLOCK
  5
998
100
AcDbEntity
  8
0
100
AcDbBlockBegin
  2
A$C32063EEB
 70
     0
 10
0.0
 20
0.0
 30
0.0
  3
A$C32063EEB
  1

  0
CIRCLE
  5
996
100
AcDbEntity
  8
VHH-050
100
AcDbCircle
 10
8.838839
 20
8.838837
 30
0.0
 40
1.838835
  0
CIRCLE
  5
997
100
AcDbEntity
  8
VHH-050
100
AcDbCircle
 10
8.838839
 20
8.838837
 30
0.0
 40
8.838835
  0
ENDBLK
  5
999
100
AcDbEntity
  8
0
100
AcDbBlockEnd
  0
ENDSEC
  0
SECTION
  2
ENTITIES
  0
INSERT
  5
27C
100
AcDbEntity
  8
0
100
AcDbBlockReference
 66
     1
  2
TEK_INFO
 10
0.0
 20
0.0
 30
0.0
  0
ATTRIB
  5
27D
100
AcDbEntity
  8
0
100
AcDbText
 10
15.0
 20
31.5
 30
0.0
 40
2.5
  1
A3
  7
ROMANS
100
AcDbAttribute
  2
FORMAAT
 70
     9
  0
ATTRIB
  5
27E
100
AcDbEntity
  8
0
100
AcDbText
 10
15.0
 20
27.5
 30
0.0
 40
2.5
  1
hor
  7
ROMANS
100
AcDbAttribute
  2
POSITIE
 70
     9
  0
ATTRIB
  5
27F
100
AcDbEntity
  8
0
100
AcDbText
 10
15.0
 20
23.5
 30
0.0
 40
2.5
  1
1
  7
ROMANS
100
AcDbAttribute
  2
AANTAL
 70
     9
  0
ATTRIB
  5
280
100
AcDbEntity
  8
0
100
AcDbText
 10
15.0
 20
19.5
 30
0.0
 40
2.5
  1
1
  7
ROMANS
100
AcDbAttribute
  2
TEKSCHAAL
 70
     9
  0
ATTRIB
  5
281
100
AcDbEntity
  8
0
100
AcDbText
 10
15.0
 20
15.5
 30
0.0
 40
2.5
  1
1
  7
ROMANS
100
AcDbAttribute
  2
SNAPSCHAAL
 70
     9
  0
ATTRIB
  5
282
100
AcDbEntity
  8
0
100
AcDbText
 10
15.0
 20
11.5
 30
0.0
 40
2.5
  1
1
  7
ROMANS
100
AcDbAttribute
  2
BLADAANTAL
 70
     9
  0
SEQEND
  5
283
100
AcDbEntity
  8
0
  0
SPLINE
  5
105A
100
AcDbEntity
  8
VHH-025
100
AcDbSpline
210
0.0
220
0.0
230
-1.0
 70
     8
 71
     3
 72
    12
 73
     8
 74
     6
 42
0.0000001
 43
0.0000001
 44
0.0000000001
 40
0.0
 40
0.0
 40
0.0
 40
0.0
 40
21.22594818207389
 40
37.44771297309462
 40
64.35211818946531
 40
75.09390495282733
 40
86.13925381656406
 40
86.13925381656406
 40
86.13925381656406
 40
86.13925381656406
 10
-349.6523946629222
 20
522.9964103083716
 30
0.0
 10
-348.1054624019504
 20
529.9018213185953
 30
0.0
 10
-345.3762992663024
 20
542.0846386539591
 30
0.0
 10
-339.7975981152957
 20
562.7968916756177
 30
0.0
 10
-334.7740802684575
 20
580.0561185667042
 30
0.0
 10
-329.0526395349618
 20
595.2483996830935
 30
0.0
 10
-326.5144450306163
 20
602.0524639436668
 30
0.0
 10
-325.2276653334429
 20
605.5018968905037
 30
0.0
 11
-349.6523946629222
 21
522.9964103083716
 31
0.0
 11
-344.8454356167149
 21
543.6708878339628
 31
0.0
 11
-340.6836153511558
 21
559.3496921573919
 31
0.0
 11
-332.8005919868282
 21
585.0733187035098
 31
0.0
 11
-329.093627033104
 21
595.155203135569
 31
0.0
 11
-325.2276653334429
 21
605.5018968905037
 31
0.0
  0
SPLINE
  5
105B
100
AcDbEntity
  8
VHH-025
100
AcDbSpline
210
0.0
220
0.0
230
-1.0
 70
     8
 71
     3
 72
    11
 73
     7
 74
     5
 42
0.0000001
 43
0.0000001
 44
0.0000000001
 40
0.0
 40
0.0
 40
0.0
 40
0.0
 40
12.81919231105582
 40
61.68837483382378
 40
89.87529633437578
 40
92.55604209165261
 40
92.55604209165261
 40
92.55604209165261
 40
92.55604209165261
 10
-362.2597055768237
 20
522.9964126084882
 30
0.0
 10
-361.255242756957
 20
527.1507110646069
 30
0.0
 10
-356.4215779335388
 20
547.1419799460011
 30
0.0
 10
-346.998270968723
 20
575.5865089325943
 30
0.0
 10
-338.2065154144368
 20
600.7480545391985
 30
0.0
 10
-333.652450359481
 20
609.9761006817153
 30
0.0
 10
-333.2569462071114
 20
610.7775232621093
 30
0.0
 11
-362.2597055768237
 21
522.9964126084882
 31
0.0
 11
-359.1757436855732
 21
535.4391161154094
 31
0.0
 11
-344.6620619160003
 21
582.1033426913977
 31
0.0
 11
-334.4347804407552
 21
608.3693903062253
 31
0.0
 11
-333.2569462071114
 21
610.7775232621093
 31
0.0
  0
SPLINE
  5
105C
100
AcDbEntity
  8
VHH-025
100
AcDbSpline
210
0.0
220
0.0
230
1.0
 70
     8
 71
     3
 72
    15
 73
    11
 74
     9
 42
0.0000001
 43
0.0000001
 44
0.0000000001
 40
0.0
 40
0.0
 40
0.0
 40
0.0
 40
1.144127971795948
 40
1.570900360916883
 40
2.189031069922019
 40
6.495683490754373
 40
30.7736953262623
 40
53.31174550632219
 40
70.84691920113034
 40
80.20316918957981
 40
80.20316918957981
 40
80.20316918957981
 40
80.20316918957981
 10
-359.1757436855732
 20
535.4391161154094
 30
0.0
 10
-358.8065750937394
 20
535.5005563471764
 30
0.0
 10
-358.2997025336354
 20
535.5849144650068
 30
0.0
 10
-357.5448534425333
 20
535.7514785805611
 30
0.0
 10
-356.7933230103926
 20
537.5332512751393
 30
0.0
 10
-353.7571035663348
 20
546.3927485910998
 30
0.0
 10
-349.0745547859448
 20
563.1693916933086
 30
0.0
 10
-342.4015632588892
 20
583.4319817349499
 30
0.0
 10
-336.5901350800431
 20
598.8826193113359
 30
0.0
 10
-333.0290632322251
 20
607.1076602442482
 30
0.0
 10
-331.7900705025185
 20
609.9693733331491
 30
0.0
 11
-359.1757436855732
 21
535.4391161154094
 31
0.0
 11
-358.0497646902695
 21
535.6420942373356
 31
0.0
 11
-357.6464685747523
 21
535.7816897792586
 31
0.0
 11
-357.3141389094216
 21
536.3028831857368
 31
0.0
 11
-355.8415592505862
 21
540.349951781924
 31
0.0
 11
-348.7628166950435
 21
563.5730709203476
 31
0.0
 11
-341.7069215148676
 21
584.9781649197971
 31
0.0
 11
-335.4586946848194
 21
601.3623639538468
 31
0.0
 11
-331.7900705025185
 21
609.9693733331491
 31
0.0
  0
LWPOLYLINE
  5
1075
100
AcDbEntity
  8
VHH-025
100
AcDbPolyline
 90
        8
 70
     1
 43
0.0
 10
-259.953238
 20
585.49641
 10
-1.053223
 20
585.49641
 42
-0.414214
 10
-0.053223
 20
584.49641
 10
-0.053223
 20
58.5
 42
-0.414214
 10
-1.053223
 20
57.5
 10
-259.953238
 20
57.5
 42
-0.414214
 10
-260.953238
 20
58.5
 10
-260.953238
 20
584.49641
 42
-0.414214
  0
LINE
  5
1077
100
AcDbEntity
  8
VHH-025
100
AcDbLine
 10
-41.501685
 20
19.9
 30
0.0
 11
-290.573539
 21
19.9
 31
0.0
  0
LWPOLYLINE
  5
1078
100
AcDbEntity
  8
VHH-025
100
AcDbPolyline
 90
       10
 70
     0
 43
0.0
 10
-317.472241
 20
20.5
 10
-331.053223
 20
20.5
 42
-0.414214
 10
-332.053223
 20
21.5
 10
-332.053223
 20
56.5
 42
-0.414214
 10
-331.053223
 20
57.5
 10
-1.053223
 20
57.5
 42
-0.414214
 10
-0.053223
 20
56.5
 10
-0.053223
 20
21.5
 42
-0.414214
 10
-1.053223
 20
20.5
 10
-14.602983
 20
20.5
  0
LWPOLYLINE
  5
1079
100
AcDbEntity
  8
VHH-025
100
AcDbPolyline
 90
        2
 70
     0
 43
0.0
 10
-41.441019
 20
20.5
 10
-290.634205
 20
20.5
  0
SPLINE
  5
107C
100
AcDbEntity
  8
VHH-025
100
AcDbSpline
210
0.0
220
0.0
230
1.0
 70
     8
 71
     3
 72
    17
 73
    13
 74
    11
 42
0.0000001
 43
0.0000001
 44
0.0000000001
 40
0.0
 40
0.0
 40
0.0
 40
0.0
 40
11.13317027128952
 40
24.91087571169344
 40
38.68858115209737
 40
69.76969503094122
 40
101.2676885364118
 40
124.3500733866444
 40
138.3189541165021
 40
155.7653610808143
 40
163.1867396591295
 40
170.6081182374456
 40
170.6081182374456
 40
170.6081182374456
 40
170.6081182374456
 10
-373.5604504577568
 20
226.9750775164725
 30
0.0
 10
-373.3518672205017
 20
223.2650549182591
 30
0.0
 10
-372.8851545975751
 20
214.9637436493565
 30
0.0
 10
-370.2305123516945
 20
202.3141455895315
 30
0.0
 10
-367.2278162675587
 20
183.0053654578487
 30
0.0
 10
-361.5211770088324
 20
158.1595506817332
 30
0.0
 10
-353.3326072596381
 20
130.8016485873987
 30
0.0
 10
-347.5735848243755
 20
108.6918816859021
 30
0.0
 10
-343.1393797517852
 20
91.06273034917487
 30
0.0
 10
-341.6027579464444
 20
78.15793174574477
 30
0.0
 10
-341.2505540256985
 20
67.40165401211815
 30
0.0
 10
-341.0251797222001
 20
62.45904299039529
 30
0.0
 10
-340.9124925704509
 20
59.98773747953373
 30
0.0
 11
-373.5604504577568
 21
226.9750775164725
 31
0.0
 11
-372.6865141856342
 21
215.8762615579212
 31
0.0
 11
-370.3504267690023
 21
202.2980487600457
 31
0.0
 11
-368.0143393523703
 21
188.7198359621702
 31
0.0
 11
-361.2303828246968
 21
158.3881104296474
 31
0.0
 11
-352.7386208688112
 21
128.0563848975375
 31
0.0
 11
-346.8460091816359
 21
105.7388219060635
 31
0.0
 11
-343.681953309986
 21
92.13300038415354
 31
0.0
 11
-341.5568792829872
 21
74.81650026593752
 31
0.0
 11
-341.2346859267181
 21
67.40211887273608
 31
0.0
 11
-340.9124925704509
 21
59.98773747953373
 31
0.0
  0
SPLINE
  5
107D
100
AcDbEntity
  8
VHH-025
100
AcDbSpline
210
0.0
220
0.0
230
-1.0
 70
     8
 71
     3
 72
    19
 73
    15
 74
    13
 42
0.0000001
 43
0.0000001
 44
0.0000000001
 40
0.0
 40
0.0
 40
0.0
 40
0.0
 40
26.05508186693574
 40
52.06911740197476
 40
75.47336214907971
 40
108.6629070467088
 40
145.3106791729094
 40
186.0115051743791
 40
220.9274686337171
 40
247.7309809828073
 40
280.0139893799226
 40
302.7356214895622
 40
316.294494998832
 40
329.8533685081019
 40
329.8533685081019
 40
329.8533685081019
 40
329.8533685081019
 10
-330.292277146842
 20
59.98784349843254
 30
0.0
 10
-330.7189908659334
 20
68.67099587955164
 30
0.0
 10
-331.5717460731468
 20
86.02362148482667
 30
0.0
 10
-336.5957154336102
 20
110.7922439373442
 30
0.0
 10
-345.3455267971142
 20
136.9080002573241
 30
0.0
 10
-353.4219992697161
 20
166.9618543063156
 30
0.0
 10
-359.8623522594571
 20
203.261203019977
 30
0.0
 10
-365.1351547236159
 20
240.3375700413869
 30
0.0
 10
-367.1066565081516
 20
274.4420193522615
 30
0.0
 10
-368.3699515515427
 20
305.7498876942791
 30
0.0
 10
-368.5875465917287
 20
333.0231596872822
 30
0.0
 10
-368.312926488341
 20
355.8793629418547
 30
0.0
 10
-367.5680456307073
 20
372.4767285359005
 30
0.0
 10
-367.2181912340657
 20
381.5091300216677
 30
0.0
 10
-367.0432640357448
 20
386.0253307645511
 30
0.0
 11
-330.292277146842
 21
59.98784349843254
 31
0.0
 11
-332.2267698023825
 21
85.97101168975177
 31
0.0
 11
-337.3083463772636
 21
111.4839030259349
 31
0.0
 11
-344.1222580564736
 21
133.8742866718289
 31
0.0
 11
-352.6752047875215
 21
165.9428537231892
 31
0.0
 11
-359.4300664889524
 21
201.962723867437
 31
0.0
 11
-364.7996191312213
 21
242.3077996713541
 31
0.0
 11
-367.1480476259421
 21
277.1446966040461
 31
0.0
 11
-368.1652502441484
 21
303.9289004018324
 31
0.0
 11
-368.486690970587
 21
336.2103084725408
 31
0.0
 11
-368.1205459170996
 21
358.9289902900586
 31
0.0
 11
-367.5819049764232
 21
372.4771605273049
 31
0.0
 11
-367.0432640357448
 21
386.0253307645511
 31
0.0
  0
LINE
  5
107E
100
AcDbEntity
  8
VHH-025
100
AcDbLine
 10
-457.443867
 20
13.58987
 30
0.0
 11
-356.979994
 21
13.58987
 31
0.0
  0
LINE
  5
107F
100
AcDbEntity
  8
VHH-025
100
AcDbLine
 10
-356.979994
 20
4.5
 30
0.0
 11
-454.756378
 21
4.5
 31
0.0
  0
LWPOLYLINE
  5
1080
100
AcDbEntity
  8
VHH-025
100
AcDbPolyline
 90
        4
 70
     0
 43
0.0
 10
-332.053223
 20
20.5
 10
-451.521261
 20
20.5
 42
0.354119
 10
-456.901073
 20
16.143514
 10
-460.332483
 20
0.0
  0
LWPOLYLINE
  5
1081
100
AcDbEntity
  8
VHH-025
100
AcDbPolyline
 90
        4
 70
     0
 43
0.0
 10
-491.565122
 20
0.0
 10
-479.162747
 20
54.935396
 42
-0.350577
 10
-477.208738
 20
56.508727
 10
-332.367467
 20
56.508727
  0
LWPOLYLINE
  5
1082
100
AcDbEntity
  8
VHH-025
100
AcDbPolyline
 90
        5
 70
     0
 43
0.0
 10
-332.322011
 20
57.5
 10
-493.42908
 20
57.499948
 42
0.352487
 10
-497.336777
 20
54.354286
 10
-503.709693
 20
25.2049
 10
-509.220228
 20
0.0
  0
LINE
  5
1092
100
AcDbEntity
  8
VHH-025
100
AcDbLine
 10
-454.756378
 20
4.5
 30
0.0
 11
-458.692764
 21
4.5
 31
0.0
  0
LWPOLYLINE
  5
1093
100
AcDbEntity
  8
VHH-025
100
AcDbPolyline
 90
        2
 70
     0
 43
0.0
 10
-459.371193
 20
4.522512
 10
-458.692764
 20
4.5
  0
LINE
  5
1094
100
AcDbEntity
  8
VHH-025
100
AcDbLine
 10
-460.332483
 20
0.0
 30
0.0
 11
-509.220228
 21
0.0
 31
0.0
  0
LINE
  5
1098
100
AcDbEntity
  8
VHH-025
100
AcDbLine
 10
-260.953238
 20
57.5
 30
0.0
 11
-339.869611
 21
58.188693
 31
0.0
  0
LINE
  5
1099
100
AcDbEntity
  8
VHH-025
100
AcDbLine
 10
-340.508916
 20
59.518456
 30
0.0
 11
-260.953238
 21
59.518456
 31
0.0
  0
SPLINE
  5
109A
100
AcDbEntity
  8
VHH-025
100
AcDbSpline
210
0.0
220
0.0
230
-1.0
 70
     8
 71
     3
 72
    17
 73
    13
 74
    11
 42
0.0000001
 43
0.0000001
 44
0.0000000001
 40
0.0
 40
0.0
 40
0.0
 40
0.0
 40
3.1645209041929
 40
6.722782324755602
 40
8.69432228506978
 40
12.65402331178052
 40
16.36329337802572
 40
20.0729869276318
 40
22.54845777733548
 40
26.54284856401899
 40
32.44730093607204
 40
38.40507736276594
 40
38.40507736276594
 40
38.40507736276594
 40
38.40507736276594
 10
-283.8035850039486
 20
60.00640783684457
 30
0.0
 10
-283.7490993956972
 20
61.05976015485442
 30
0.0
 10
-283.6333488934266
 20
63.29752648968067
 30
0.0
 10
-283.5306378901557
 20
66.19531451152589
 30
0.0
 10
-283.2094681460873
 20
69.34282192950573
 30
0.0
 10
-283.0248539802003
 20
72.55275468092624
 30
0.0
 10
-281.826350783889
 20
76.24669409993834
 30
0.0
 10
-279.3545121531515
 20
78.66905634404905
 30
0.0
 10
-276.1490067732392
 20
79.86245928885399
 30
0.0
 10
-272.1169282132421
 20
80.74500794120238
 30
0.0
 10
-266.8771662910223
 20
81.48532398479625
 30
0.0
 10
-262.9337799630592
 20
81.78217041484652
 30
0.0
 10
-260.953223483777
 20
81.93126083396647
 30
0.0
 11
-283.8035850039486
 21
60.00640783684457
 31
0.0
 11
-283.6481780397753
 21
63.16711048476327
 31
0.0
 11
-283.461449717859
 21
66.72046901872227
 31
0.0
 11
-283.2863870782857
 21
68.68422126565701
 31
0.0
 11
-282.8438647570801
 21
72.61911722567538
 31
0.0
 11
-281.5584305227967
 21
76.09853431100373
 31
0.0
 11
-278.9013864608587
 21
78.68734544449899
 31
0.0
 11
-276.6169414858213
 21
79.64090041604459
 31
0.0
 11
-272.731887217029
 21
80.56907663060746
 31
0.0
 11
-266.8889508002848
 21
81.41916594575514
 31
0.0
 11
-260.953223483777
 21
81.93126083396647
 31
0.0
  0
SPLINE
  5
109B
100
AcDbEntity
  8
VHH-025
100
AcDbSpline
210
0.0
220
0.0
230
-1.0
 70
     8
 71
     3
 72
    15
 73
    11
 74
     9
 42
0.0000001
 43
0.0000001
 44
0.0000000001
 40
0.0
 40
0.0
 40
0.0
 40
0.0
 40
7.302496459161983
 40
12.59524837450552
 40
18.80805435543992
 40
23.02163368340659
 40
26.74921606703872
 40
34.35975472104273
 40
40.28399564046994
 40
46.1219228007465
 40
46.1219228007465
 40
46.1219228007465
 40
46.1219228007465
 10
-260.9532232615674
 20
86.77974801383561
 30
0.0
 10
-263.3845667202856
 20
86.60399558652057
 30
0.0
 10
-267.5781154494827
 20
86.30086014690283
 30
0.0
 10
-273.7417632284246
 20
85.22260429944573
 30
0.0
 10
-278.9603082479537
 20
84.29320879016804
 30
0.0
 10
-283.1001459877565
 20
81.88295042823904
 30
0.0
 10
-286.7421289632622
 20
78.05825716618547
 30
0.0
 10
-288.2309365122687
 20
72.25216336464274
 30
0.0
 10
-288.8888864162071
 20
65.8703300965951
 30
0.0
 10
-289.0569175394773
 20
61.94700106174631
 30
0.0
 10
-289.1403165737083
 20
59.99973173384342
 30
0.0
 11
-260.9532232615674
 21
86.77974801383561
 31
0.0
 11
-268.2250949914759
 21
86.11166412701413
 31
0.0
 11
-273.4506543584757
 21
85.27097860951426
 31
0.0
 11
-279.4777915314753
 21
83.7634721735144
 31
0.0
 11
-283.1119494199756
 21
81.63106808551447
 31
0.0
 11
-285.6514967774746
 21
78.9024109715142
 31
0.0
 11
-288.1526339050069
 21
71.71460103570144
 31
0.0
 11
-288.8331045149752
 21
65.82957000601391
 31
0.0
 11
-289.1403165737083
 21
59.99973173384342
 31
0.0
  0
LINE
  5
109C
100
AcDbEntity
  8
VHH-025
100
AcDbLine
 10
-332.053223
 20
20.5
 30
0.0
 11
-332.322011
 21
57.5
 31
0.0
  0
SPLINE
  5
109D
100
AcDbEntity
  8
VHH-025
100
AcDbSpline
210
0.0
220
0.0
230
-1.0
 70
     8
 71
     3
 72
    11
 73
     7
 74
     5
 42
0.0000001
 43
0.0000001
 44
0.0000000001
 40
0.0
 40
0.0
 40
0.0
 40
0.0
 40
13.28372143960388
 40
19.56485780860576
 40
27.05038666949622
 40
37.96817867755204
 40
37.96817867755204
 40
37.96817867755204
 40
37.96817867755204
 10
-319.0532248773761
 20
0.9999761779304208
 30
0.0
 10
-318.7505511987828
 20
5.417824313683268
 30
0.0
 10
-318.3047598961716
 20
11.92462822319041
 30
0.0
 10
-317.4466291238324
 20
20.9009549770837
 30
0.0
 10
-316.5550643874228
 20
29.08104528840248
 30
0.0
 10
-315.7639254178146
 20
35.1644493066624
 30
0.0
 10
-315.2945812825273
 20
38.77343598060588
 30
0.0
 11
-319.0532248773761
 21
0.9999761779304208
 31
0.0
 11
-318.0645901836888
 21
14.24685719677518
 31
0.0
 11
-317.4722411956572
 21
20.50000014751412
 31
0.0
 11
-316.6581137785178
 21
27.94112498693766
 31
0.0
 11
-315.2945812825273
 21
38.77343598060588
 31
0.0
  0
SPLINE
  5
109E
100
AcDbEntity
  8
VHH-025
100
AcDbSpline
210
0.0
220
0.0
230
1.0
 70
     8
 71
     3
 72
    11
 73
     7
 74
     5
 42
0.0000001
 43
0.0000001
 44
0.0000000001
 40
0.0
 40
0.0
 40
0.0
 40
0.0
 40
13.28372143960388
 40
19.56485780860576
 40
27.05038666949622
 40
37.96817867755226
 40
37.96817867755226
 40
37.96817867755226
 40
37.96817867755226
 10
-289.0532217095733
 20
0.9999761779304208
 30
0.0
 10
-289.3558953881665
 20
5.417824313683268
 30
0.0
 10
-289.8016866907776
 20
11.92462822319041
 30
0.0
 10
-290.6598174631171
 20
20.9009549770837
 30
0.0
 10
-291.5513821995262
 20
29.08104528840258
 30
0.0
 10
-292.3425211691358
 20
35.16444930666243
 30
0.0
 10
-292.8118653044239
 20
38.77343598060588
 30
0.0
 11
-289.0532217095733
 21
0.9999761779304208
 31
0.0
 11
-290.0418564032607
 21
14.24685719677518
 31
0.0
 11
-290.6342053912922
 21
20.50000014751412
 31
0.0
 11
-291.4483328084315
 21
27.94112498693766
 31
0.0
 11
-292.8118653044239
 21
38.77343598060588
 31
0.0
  0
ARC
  5
109F
100
AcDbEntity
  8
VHH-025
100
AcDbCircle
 10
-356.979994
 20
15.5
 30
0.0
 40
11.0
100
AcDbArc
 50
270.0
 51
350.0
  0
LINE
  5
10A0
100
AcDbEntity
  8
VHH-025
100
AcDbLine
 10
-375.332483
 20
0.0
 30
0.0
 11
-375.489627
 21
4.5
 31
0.0
  0
LINE
  5
10A1
100
AcDbEntity
  8
VHH-025
100
AcDbLine
 10
-359.332483
 20
0.0
 30
0.0
 11
-359.17534
 21
4.5
 31
0.0
  0
LINE
  5
10A2
100
AcDbEntity
  8
VHH-025
100
AcDbLine
 10
-375.332483
 20
0.0
 30
0.0
 11
-359.332483
 21
0.0
 31
0.0
  0
LWPOLYLINE
  5
10A3
100
AcDbEntity
  8
VHH-025
100
AcDbPolyline
 90
        2
 70
     0
 43
0.0
 10
-356.979994
 20
13.58987
 10
-355.761552
 20
20.5
  0
LWPOLYLINE
  5
10A4
100
AcDbEntity
  8
VHH-025
100
AcDbPolyline
 90
        2
 70
     0
 43
0.0
 10
-346.147109
 20
13.58987
 10
-344.928667
 20
20.5
  0
LINE
  5
10A5
100
AcDbEntity
  8
VHH-025
100
AcDbLine
 10
-290.753223
 20
1.0
 30
0.0
 11
-290.753223
 21
0.0
 31
0.0
  0
LINE
  5
10A6
100
AcDbEntity
  8
VHH-025
100
AcDbLine
 10
-327.053223
 20
20.5
 30
0.0
 11
-327.053223
 21
19.9
 31
0.0
  0
LINE
  5
10A7
100
AcDbEntity
  8
VHH-025
100
AcDbLine
 10
-317.532908
 20
19.9
 30
0.0
 11
-327.053223
 21
19.9
 31
0.0
  0
LINE
  5
10A8
100
AcDbEntity
  8
VHH-025
100
AcDbLine
 10
-317.353223
 20
1.0
 30
0.0
 11
-317.353223
 21
0.0
 31
0.0
  0
LINE
  5
10A9
100
AcDbEntity
  8
VHH-025
100
AcDbLine
 10
-317.353223
 20
0.0
 30
0.0
 11
-290.753223
 21
0.0
 31
0.0
  0
LINE
  5
10AA
100
AcDbEntity
  8
VHH-025
100
AcDbLine
 10
-319.053225
 20
0.999976
 30
0.0
 11
-289.053222
 21
0.999976
 31
0.0
  0
SPLINE
  5
10AB
100
AcDbEntity
  8
VHH-025
100
AcDbSpline
210
0.0
220
0.0
230
-1.0
 70
     8
 71
     3
 72
    12
 73
     8
 74
     6
 42
0.0000001
 43
0.0000001
 44
0.0000000001
 40
0.0
 40
0.0
 40
0.0
 40
0.0
 40
0.7759383456504823
 40
1.313673913556431
 40
1.814968045952186
 40
2.371579175917442
 40
2.926100784726391
 40
2.926100784726391
 40
2.926100784726391
 40
2.926100784726391
 10
-292.811865304422
 20
38.77343598060588
 30
0.0
 10
-292.8632894891147
 20
39.02823095790009
 30
0.0
 10
-292.950351316044
 20
39.45960223482289
 30
0.0
 10
-293.2633375606411
 20
39.99438635651823
 30
0.0
 10
-293.712053587644
 20
40.31079526506726
 30
0.0
 10
-294.2443804906654
 20
40.42296048280353
 30
0.0
 10
-294.6104131580777
 20
40.47435237564195
 30
0.0
 10
-294.7930853236321
 20
40.50000000000046
 30
0.0
 11
-292.811865304422
 21
38.77343598060588
 31
0.0
 11
-293.0147991709545
 21
39.52236732730261
 31
0.0
 11
-293.2998912296479
 21
39.9783081777
 31
0.0
 11
-293.7081197391762
 21
40.26924681587433
 31
0.0
 11
-294.2448703508653
 21
40.41660600579007
 31
0.0
 11
-294.7930853236321
 21
40.50000000000046
 31
0.0
  0
ARC
  5
10AC
100
AcDbEntity
  8
VHH-025
100
AcDbCircle
 10
-304.546395
 20
-76.966469
 30
0.0
 40
117.793171
100
AcDbArc
 50
89.760116
 51
94.268287
  0
SPLINE
  5
10AD
100
AcDbEntity
  8
VHH-025
100
AcDbSpline
210
0.0
220
0.0
230
-1.0
 70
     8
 71
     3
 72
    12
 73
     8
 74
     6
 42
0.0000001
 43
0.0000001
 44
0.0000000001
 40
0.0
 40
0.0
 40
0.0
 40
0.0
 40
0.7759383456504823
 40
1.313673913556431
 40
1.814968045952186
 40
2.371579175917442
 40
2.926100784724593
 40
2.926100784724593
 40
2.926100784724593
 40
2.926100784724593
 10
-315.2945812825273
 20
38.77343598060588
 30
0.0
 10
-315.2431570978345
 20
39.02823095790009
 30
0.0
 10
-315.1560952709053
 20
39.45960223482289
 30
0.0
 10
-314.8431090263083
 20
39.99438635651822
 30
0.0
 10
-314.3943929993053
 20
40.31079526506728
 30
0.0
 10
-313.8620660962846
 20
40.42296048280333
 30
0.0
 10
-313.4960334288728
 20
40.47435237564193
 30
0.0
 10
-313.3133612633191
 20
40.50000000000046
 30
0.0
 11
-315.2945812825273
 21
38.77343598060588
 31
0.0
 11
-315.0916474159949
 21
39.52236732730261
 31
0.0
 11
-314.8065553573014
 21
39.9783081777
 31
0.0
 11
-314.3983268477732
 21
40.26924681587433
 31
0.0
 11
-313.8615762360841
 21
40.41660600579007
 31
0.0
 11
-313.3133612633191
 21
40.50000000000046
 31
0.0
  0
ARC
  5
10AE
100
AcDbEntity
  8
VHH-025
100
AcDbCircle
 10
-303.560052
 20
-76.966469
 30
0.0
 40
117.793171
100
AcDbArc
 50
85.731713
 51
90.239884
  0
LINE
  5
10AF
100
AcDbEntity
  8
VHH-025
100
AcDbLine
 10
-339.869611
 20
58.188693
 30
0.0
 11
-339.869611
 21
59.5
 31
0.0
  0
SPLINE
  5
10B0
100
AcDbEntity
  8
VHH-025
100
AcDbSpline
210
0.0
220
0.0
230
1.0
 70
     8
 71
     3
 72
     9
 73
     5
 74
     3
 42
0.0000001
 43
0.0000001
 44
0.0000000001
 40
0.0
 40
0.0
 40
0.0
 40
0.0
 40
0.3770111014961659
 40
0.7540222471681384
 40
0.7540222471681384
 40
0.7540222471681384
 40
0.7540222471681384
 10
-340.9124925712876
 20
59.98773749881411
 30
0.0
 10
-340.8788173897402
 20
59.85558228654458
 30
0.0
 10
-340.8114670226996
 20
59.5912718465204
 30
0.0
 10
-340.5455842897421
 20
59.53042404837116
 30
0.0
 10
-340.4126429154748
 20
59.50000014751413
 30
0.0
 11
-340.9124925712876
 21
59.98773749881411
 31
0.0
 11
-340.7618339409818
 21
59.64213751651413
 31
0.0
 11
-340.4126429154748
 21
59.50000014751413
 31
0.0
  0
ARC
  5
10B1
100
AcDbEntity
  8
VHH-025
100
AcDbCircle
 10
-472.707165
 20
230.669429
 30
0.0
 40
62.5
100
AcDbArc
 50
54.433004
 51
71.886042
  0
LINE
  5
10B2
100
AcDbEntity
  8
VHH-025
100
AcDbLine
 10
-444.188583
 20
265.780831
 30
0.0
 11
-439.909147
 21
266.230618
 31
0.0
  0
ARC
  5
10B3
100
AcDbEntity
  8
VHH-025
100
AcDbCircle
 10
-474.00933
 20
238.132826
 30
0.0
 40
50.670673
100
AcDbArc
 50
43.450691
 51
53.824524
  0
ARC
  5
10B4
100
AcDbEntity
  8
VHH-025
100
AcDbCircle
 10
-474.00933
 20
238.132826
 30
0.0
 40
53.758367
100
AcDbArc
 50
45.502135
 51
64.279377
  0
LINE
  5
10B5
100
AcDbEntity
  8
VHH-025
100
AcDbLine
 10
-422.080817
 20
222.500004
 30
0.0
 11
-453.825637
 21
222.500004
 31
0.0
  0
LINE
  5
10B6
100
AcDbEntity
  8
VHH-025
100
AcDbLine
 10
-445.953227
 20
220.500004
 30
0.0
 11
-429.953227
 21
220.500004
 31
0.0
  0
LINE
  5
10B7
100
AcDbEntity
  8
VHH-025
100
AcDbLine
 10
-445.953227
 20
208.000004
 30
0.0
 11
-429.953227
 21
208.000004
 31
0.0
  0
LINE
  5
10B8
100
AcDbEntity
  8
VHH-025
100
AcDbLine
 10
-445.953227
 20
206.000004
 30
0.0
 11
-429.953227
 21
206.000004
 31
0.0
  0
LINE
  5
10B9
100
AcDbEntity
  8
VHH-025
100
AcDbLine
 10
-444.953227
 20
202.500004
 30
0.0
 11
-430.953227
 21
202.500004
 31
0.0
  0
LINE
  5
10BA
100
AcDbEntity
  8
VHH-025
100
AcDbLine
 10
-422.863712
 20
248.500004
 30
0.0
 11
-453.953227
 21
248.500004
 31
0.0
  0
LINE
  5
10BB
100
AcDbEntity
  8
VHH-025
100
AcDbLine
 10
-452.869276
 20
258.800004
 30
0.0
 11
-423.037177
 21
258.800004
 31
0.0
  0
LINE
  5
110B
100
AcDbEntity
  8
VHH-025
100
AcDbLine
 10
-453.953227
 20
248.500004
 30
0.0
 11
-454.825028
 21
223.534904
 31
0.0
  0
ARC
  5
110C
100
AcDbEntity
  8
VHH-025
100
AcDbCircle
 10
-453.825637
 20
223.500004
 30
0.0
 40
1.0
100
AcDbArc
 50
177.999999
 51
269.999999
  0
ARC
  5
110D
100
AcDbEntity
  8
VHH-025
100
AcDbCircle
 10
-447.953227
 20
220.500004
 30
0.0
 40
2.0
100
AcDbArc
 50
359.999999
 51
89.999999
  0
ARC
  5
110E
100
AcDbEntity
  8
VHH-025
100
AcDbCircle
 10
-446.703227
 20
207.000004
 30
0.0
 40
1.25
100
AcDbArc
 50
306.869897
 51
53.130102
  0
ARC
  5
110F
100
AcDbEntity
  8
VHH-025
100
AcDbCircle
 10
-444.953227
 20
203.500004
 30
0.0
 40
1.0
100
AcDbArc
 50
179.999999
 51
269.999999
  0
LINE
  5
1110
100
AcDbEntity
  8
VHH-025
100
AcDbLine
 10
-445.953227
 20
206.000004
 30
0.0
 11
-445.953227
 21
203.500004
 31
0.0
  0
LINE
  5
1111
100
AcDbEntity
  8
VHH-025
100
AcDbLine
 10
-445.953227
 20
220.500004
 30
0.0
 11
-445.953227
 21
208.000004
 31
0.0
  0
ARC
  5
1112
100
AcDbEntity
  8
VHH-025
100
AcDbCircle
 10
-430.61099
 20
328.224912
 30
0.0
 40
49.329327
100
AcDbArc
 50
236.589368
 51
244.279377
  0
ARC
  5
1113
100
AcDbEntity
  8
VHH-025
100
AcDbCircle
 10
-434.986219
 20
347.216529
 30
0.0
 40
60.0
100
AcDbArc
 50
244.918514
 51
252.252667
  0
ARC
  5
1114
100
AcDbEntity
  8
VHH-025
100
AcDbCircle
 10
-430.61099
 20
328.224912
 30
0.0
 40
46.241633
100
AcDbArc
 50
229.812431
 51
244.279377
  0
ARC
  5
1115
100
AcDbEntity
  8
VHH-025
100
AcDbCircle
 10
-474.596368
 20
301.938194
 30
0.0
 40
5.0
100
AcDbArc
 50
30.863553
 51
65.333826
  0
LINE
  5
1116
100
AcDbEntity
  8
VHH-025
100
AcDbLine
 10
-480.395845
 20
307.898431
 30
0.0
 11
-477.925931
 21
308.68293
 31
0.0
  0
ARC
  5
1117
100
AcDbEntity
  8
VHH-025
100
AcDbCircle
 10
-480.093126
 20
306.945351
 30
0.0
 40
1.0
100
AcDbArc
 50
107.620993
 51
200.1129
  0
ARC
  5
1118
100
AcDbEntity
  8
VHH-025
100
AcDbCircle
 10
-477.623212
 20
307.72985
 30
0.0
 40
1.0
100
AcDbArc
 50
65.333826
 51
107.620993
  0
LINE
  5
1119
100
AcDbEntity
  8
VHH-025
100
AcDbLine
 10
-480.979819
 20
307.40771
 30
0.0
 11
-475.024997
 21
304.673056
 31
0.0
  0
ARC
  5
111A
100
AcDbEntity
  8
VHH-025
100
AcDbCircle
 10
-458.495738
 20
314.854387
 30
0.0
 40
24.0
100
AcDbArc
 50
200.1129
 51
232.334067
  0
ARC
  5
111B
100
AcDbEntity
  8
VHH-025
100
AcDbCircle
 10
-477.11165
 20
300.129282
 30
0.0
 40
5.0
100
AcDbArc
 50
31.14031
 51
65.333826
  0
LINE
  5
111C
100
AcDbEntity
  8
VHH-025
100
AcDbLine
 10
-471.748206
 20
305.309202
 30
0.0
 11
-473.157824
 21
304.238722
 31
0.0
  0
LINE
  5
111D
100
AcDbEntity
  8
VHH-025
100
AcDbLine
 10
-477.205881
 20
308.638605
 30
0.0
 11
-472.509715
 21
306.481968
 31
0.0
  0
ARC
  5
111E
100
AcDbEntity
  8
VHH-025
100
AcDbCircle
 10
-430.61099
 20
328.224912
 30
0.0
 40
46.241633
100
AcDbArc
 50
210.863553
 51
229.812431
  0
ARC
  5
111F
100
AcDbEntity
  8
VHH-025
100
AcDbCircle
 10
-435.582806
 20
344.540201
 30
0.0
 40
61.5
100
AcDbArc
 50
232.336052
 51
248.357869
  0
ARC
  5
1120
100
AcDbEntity
  8
VHH-025
100
AcDbCircle
 10
-430.61099
 20
328.224912
 30
0.0
 40
49.329327
100
AcDbArc
 50
211.14031
 51
236.589368
  0
ARC
  5
1121
100
AcDbEntity
  8
VHH-025
100
AcDbCircle
 10
-443.822734
 20
262.300004
 30
0.0
 40
3.5
100
AcDbArc
 50
96.0
 51
203.021422
  0
ARC
  5
1122
100
AcDbEntity
  8
VHH-025
100
AcDbCircle
 10
-434.092716
 20
266.434446
 30
0.0
 40
14.071985
100
AcDbArc
 50
142.675716
 51
203.021422
  0
LINE
  5
1123
100
AcDbEntity
  8
VHH-025
100
AcDbLine
 10
-448.688707
 20
250.500004
 30
0.0
 11
-448.508225
 21
258.050004
 31
0.0
  0
LINE
  5
1124
100
AcDbEntity
  8
VHH-025
100
AcDbLine
 10
-445.288712
 20
250.500004
 30
0.0
 11
-445.161697
 21
258.050004
 31
0.0
  0
LINE
  5
1125
100
AcDbEntity
  8
VHH-025
100
AcDbLine
 10
-453.103708
 20
250.500004
 30
0.0
 11
-452.85296
 21
258.050004
 31
0.0
  0
LINE
  5
1126
100
AcDbEntity
  8
VHH-025
100
AcDbLine
 10
-451.335719
 20
250.500004
 30
0.0
 11
-451.11311
 21
258.050004
 31
0.0
  0
LINE
  5
1127
100
AcDbEntity
  8
VHH-025
100
AcDbLine
 10
-453.953227
 20
248.500004
 30
0.0
 11
-453.618819
 21
258.076179
 31
0.0
  0
LINE
  5
1128
100
AcDbEntity
  8
VHH-025
100
AcDbLine
 10
-447.147275
 20
250.500004
 30
0.0
 11
-448.688707
 21
250.500004
 31
0.0
  0
LINE
  5
1129
100
AcDbEntity
  8
VHH-025
100
AcDbLine
 10
-443.478583
 20
250.500004
 30
0.0
 11
-445.288712
 21
250.500004
 31
0.0
  0
LINE
  5
112A
100
AcDbEntity
  8
VHH-025
100
AcDbLine
 10
-452.367265
 20
250.500004
 30
0.0
 11
-453.103708
 21
250.500004
 31
0.0
  0
LINE
  5
112B
100
AcDbEntity
  8
VHH-025
100
AcDbLine
 10
-450.159839
 20
250.500004
 30
0.0
 11
-451.335719
 21
250.500004
 31
0.0
  0
ARC
  5
112C
100
AcDbEntity
  8
VHH-025
100
AcDbCircle
 10
-443.822734
 20
262.300004
 30
0.0
 40
3.5
100
AcDbArc
 50
203.021422
 51
270.0
  0
ARC
  5
112D
100
AcDbEntity
  8
VHH-025
100
AcDbCircle
 10
-452.869276
 20
258.050004
 30
0.0
 40
0.75
100
AcDbArc
 50
90.0
 51
178.0
  0
ARC
  5
112E
100
AcDbEntity
  8
VHH-025
100
AcDbCircle
 10
-449.259074
 20
277.998276
 30
0.0
 40
5.0
100
AcDbArc
 50
322.675716
 51
14.722142
  0
ARC
  5
112F
100
AcDbEntity
  8
VHH-025
100
AcDbCircle
 10
-474.00933
 20
238.132826
 30
0.0
 40
50.670673
100
AcDbArc
 50
53.824524
 51
64.279377
  0
LINE
  5
11FF
100
AcDbEntity
  8
VHH-025
100
AcDbLine
 10
-391.838537
 20
321.773567
 30
0.0
 11
-391.838537
 21
386.5
 31
0.0
  0
LINE
  5
1200
100
AcDbEntity
  8
VHH-025
100
AcDbLine
 10
-393.72841
 20
257.220053
 30
0.0
 11
-393.72841
 21
386.5
 31
0.0
  0
LINE
  5
1201
100
AcDbEntity
  8
VHH-025
100
AcDbLine
 10
-385.979709
 20
386.5
 30
0.0
 11
-385.979709
 21
227.083459
 31
0.0
  0
LINE
  5
1202
100
AcDbEntity
  8
VHH-025
100
AcDbLine
 10
-391.835853
 20
257.346069
 30
0.0
 11
-391.835853
 21
386.5
 31
0.0
  0
SPLINE
  5
1203
100
AcDbEntity
  8
VHH-025
100
AcDbSpline
210
0.0
220
0.0
230
-1.0
 70
     8
 71
     3
 72
    14
 73
    10
 74
     8
 42
0.0000001
 43
0.0000001
 44
0.0000000001
 40
0.0
 40
0.0
 40
0.0
 40
0.0
 40
24.96485783370184
 40
54.90026706652744
 40
79.89662429683959
 40
99.92029882395131
 40
119.840623845422
 40
149.7959527385391
 40
159.735123779815
 40
159.735123779815
 40
159.735123779815
 40
159.735123779815
 10
-379.7462474898038
 20
386.5000000046352
 30
0.0
 10
-380.0871508539158
 20
378.1848791763529
 30
0.0
 10
-380.8368321001818
 20
359.8990809072805
 30
0.0
 10
-380.9839725990266
 20
333.2617988286657
 30
0.0
 10
-380.5556133581859
 20
308.2780477330202
 30
0.0
 10
-379.6393733058502
 20
286.6500373889961
 30
0.0
 10
-378.3161642800235
 20
263.3836102364551
 30
0.0
 10
-376.185717991749
 20
243.5529180034588
 30
0.0
 10
-375.1990436379919
 20
230.2912067454875
 30
0.0
 10
-374.953227167547
 20
226.9872320946019
 30
0.0
 11
-379.7462474898038
 21
386.5000000046352
 31
0.0
 11
-380.6348450249734
 21
361.5509615246169
 31
0.0
 11
-380.8697958594148
 21
331.6164743226932
 31
0.0
 11
-380.4106963906033
 21
306.624333508767
 31
0.0
 11
-379.589520553005
 21
286.617504379406
 31
0.0
 11
-378.3733631498325
 21
266.7343378777709
 31
0.0
 11
-375.717630788884
 21
236.8969650925905
 31
0.0
 11
-374.953227167547
 21
226.9872320946019
 31
0.0
  0
LINE
  5
1204
100
AcDbEntity
  8
VHH-025
100
AcDbLine
 10
-429.86512
 20
243.385705
 30
0.0
 11
-386.631894
 21
249.670246
 31
0.0
  0
SPLINE
  5
1205
100
AcDbEntity
  8
VHH-025
100
AcDbSpline
210
0.0
220
0.0
230
1.0
 70
     8
 71
     3
 72
    15
 73
    11
 74
     9
 42
0.0000001
 43
0.0000001
 44
0.0000000001
 40
0.0
 40
0.0
 40
0.0
 40
0.0
 40
0.1323596920370364
 40
0.2943652284169482
 40
1.223465955565874
 40
2.382258466632486
 40
6.155798085585844
 40
8.743523072128112
 40
10.53077697569748
 40
11.83032934886063
 40
11.83032934886063
 40
11.83032934886063
 40
11.83032934886063
 10
-420.0744911020701
 20
250.7196831954593
 30
0.0
 10
-420.1166039281162
 20
250.7052851838773
 30
0.0
 10
-420.210261985698
 20
250.6732643027248
 30
0.0
 10
-420.5231155346842
 20
250.4037409648917
 30
0.0
 10
-421.0930618500159
 20
249.9240256647155
 30
0.0
 10
-422.6045422802612
 20
248.6806731189961
 30
0.0
 10
-424.600385386178
 20
247.1620829824507
 30
0.0
 10
-426.8539026744178
 20
245.6499416151223
 30
0.0
 10
-428.482680931424
 20
244.6697343940805
 30
0.0
 10
-429.4555426884492
 20
244.3280890519213
 30
0.0
 10
-429.8651196724768
 20
244.1842555957923
 30
0.0
 11
-420.0744911020701
 21
250.7196831954593
 31
0.0
 11
-420.1971123634502
 21
250.6698523382151
 31
0.0
 11
-420.3269034630339
 21
250.5728984095344
 31
0.0
 11
-421.0367564284279
 21
249.9734512236122
 31
0.0
 11
-421.9323317426042
 21
249.2380976077634
 31
0.0
 11
-424.9400691385253
 21
246.9592564520467
 31
0.0
 11
-427.0913143340822
 21
245.5210406425908
 31
0.0
 11
-428.6517815928782
 21
244.6497092188205
 31
0.0
 11
-429.8651196724768
 21
244.1842555957923
 31
0.0
  0
LINE
  5
1206
100
AcDbEntity
  8
VHH-025
100
AcDbLine
 10
-375.953227
 20
226.995959
 30
0.0
 11
-375.953227
 21
225.19934
 31
0.0
  0
ARC
  5
1207
100
AcDbEntity
  8
VHH-025
100
AcDbCircle
 10
-374.953227
 20
225.19934
 30
0.0
 40
1.0
100
AcDbArc
 50
179.999999
 51
269.999999
  0
LINE
  5
1208
100
AcDbEntity
  8
VHH-025
100
AcDbLine
 10
-373.337053
 20
224.19934
 30
0.0
 11
-374.953227
 21
224.19934
 31
0.0
  0
LINE
  5
1209
100
AcDbEntity
  8
VHH-025
100
AcDbLine
 10
-374.953227
 20
226.987232
 30
0.0
 11
-374.953227
 21
224.19934
 31
0.0
  0
LINE
  5
120A
100
AcDbEntity
  8
VHH-025
100
AcDbLine
 10
-429.86512
 20
227.466441
 30
0.0
 11
-429.86512
 21
244.184256
 31
0.0
  0
ARC
  5
120B
100
AcDbEntity
  8
VHH-025
100
AcDbCircle
 10
-422.080817
 20
223.500004
 30
0.0
 40
1.0
100
AcDbArc
 50
269.999999
 51
349.999999
  0
LINE
  5
120C
100
AcDbEntity
  8
VHH-025
100
AcDbLine
 10
-421.09601
 20
223.326356
 30
0.0
 11
-420.380595
 21
227.383671
 31
0.0
  0
LINE
  5
120D
100
AcDbEntity
  8
VHH-025
100
AcDbLine
 10
-428.341208
 20
227.453142
 30
0.0
 11
-428.139463
 21
223.534903
 31
0.0
  0
LINE
  5
120E
100
AcDbEntity
  8
VHH-025
100
AcDbLine
 10
-428.1596
 20
223.33134
 30
0.0
 11
-428.160871
 21
223.326356
 31
0.0
  0
LINE
  5
120F
100
AcDbEntity
  8
VHH-025
100
AcDbLine
 10
-428.13857
 20
223.500004
 30
0.0
 11
-428.1596
 21
223.33134
 31
0.0
  0
LINE
  5
1210
100
AcDbEntity
  8
VHH-025
100
AcDbLine
 10
-428.139463
 20
223.534903
 30
0.0
 11
-428.13857
 21
223.500004
 31
0.0
  0
LINE
  5
1211
100
AcDbEntity
  8
VHH-025
100
AcDbLine
 10
-421.09601
 20
223.326356
 30
0.0
 11
-428.160871
 21
223.326356
 31
0.0
  0
ARC
  5
1212
100
AcDbEntity
  8
VHH-025
100
AcDbCircle
 10
-427.953227
 20
220.500004
 30
0.0
 40
2.0
100
AcDbArc
 50
89.999999
 51
179.999999
  0
ARC
  5
1213
100
AcDbEntity
  8
VHH-025
100
AcDbCircle
 10
-429.203227
 20
207.000004
 30
0.0
 40
1.25
100
AcDbArc
 50
126.869897
 51
233.130102
  0
ARC
  5
1214
100
AcDbEntity
  8
VHH-025
100
AcDbCircle
 10
-430.953227
 20
203.500004
 30
0.0
 40
1.0
100
AcDbArc
 50
269.999999
 51
359.999999
  0
LINE
  5
1215
100
AcDbEntity
  8
VHH-025
100
AcDbLine
 10
-429.953227
 20
206.000004
 30
0.0
 11
-429.953227
 21
203.500004
 31
0.0
  0
LINE
  5
1216
100
AcDbEntity
  8
VHH-025
100
AcDbLine
 10
-429.953227
 20
220.500004
 30
0.0
 11
-429.953227
 21
208.000004
 31
0.0
  0
LINE
  5
1217
100
AcDbEntity
  8
VHH-025
100
AcDbLine
 10
-373.56045
 20
226.975078
 30
0.0
 11
-429.86512
 21
227.466441
 31
0.0
  0
LINE
  5
1218
100
AcDbEntity
  8
VHH-025
100
AcDbLine
 10
-428.322734
 20
271.800004
 30
0.0
 11
-428.322734
 21
260.800004
 31
0.0
  0
LINE
  5
1219
100
AcDbEntity
  8
VHH-025
100
AcDbLine
 10
-430.617741
 20
250.500004
 30
0.0
 11
-430.744756
 21
258.050004
 31
0.0
  0
LINE
  5
121A
100
AcDbEntity
  8
VHH-025
100
AcDbLine
 10
-422.802746
 20
250.500004
 30
0.0
 11
-423.053494
 21
258.050004
 31
0.0
  0
LINE
  5
121B
100
AcDbEntity
  8
VHH-025
100
AcDbLine
 10
-424.570735
 20
250.500004
 30
0.0
 11
-424.793343
 21
258.050004
 31
0.0
  0
LINE
  5
121C
100
AcDbEntity
  8
VHH-025
100
AcDbLine
 10
-427.217746
 20
250.500004
 30
0.0
 11
-427.398229
 21
258.050004
 31
0.0
  0
LINE
  5
121D
100
AcDbEntity
  8
VHH-025
100
AcDbLine
 10
-421.977701
 20
249.200845
 30
0.0
 11
-422.287634
 21
258.076179
 31
0.0
  0
LINE
  5
121E
100
AcDbEntity
  8
VHH-025
100
AcDbLine
 10
-434.567732
 20
250.500004
 30
0.0
 11
-434.633299
 21
258.050004
 31
0.0
  0
LINE
  5
121F
100
AcDbEntity
  8
VHH-025
100
AcDbLine
 10
-441.338722
 20
250.500004
 30
0.0
 11
-441.273154
 21
258.050004
 31
0.0
  0
LINE
  5
1220
100
AcDbEntity
  8
VHH-025
100
AcDbLine
 10
-432.427871
 20
250.500004
 30
0.0
 11
-430.617741
 21
250.500004
 31
0.0
  0
LINE
  5
1221
100
AcDbEntity
  8
VHH-025
100
AcDbLine
 10
-425.746614
 20
250.500004
 30
0.0
 11
-424.570735
 21
250.500004
 31
0.0
  0
LINE
  5
1222
100
AcDbEntity
  8
VHH-025
100
AcDbLine
 10
-428.759178
 20
250.500004
 30
0.0
 11
-427.217746
 21
250.500004
 31
0.0
  0
LINE
  5
1223
100
AcDbEntity
  8
VHH-025
100
AcDbLine
 10
-423.539188
 20
250.500004
 30
0.0
 11
-422.802746
 21
250.500004
 31
0.0
  0
LINE
  5
1224
100
AcDbEntity
  8
VHH-025
100
AcDbLine
 10
-436.532823
 20
250.500004
 30
0.0
 11
-434.567732
 21
250.500004
 31
0.0
  0
LINE
  5
1225
100
AcDbEntity
  8
VHH-025
100
AcDbLine
 10
-439.373631
 20
250.500004
 30
0.0
 11
-441.338722
 21
250.500004
 31
0.0
  0
ARC
  5
1226
100
AcDbEntity
  8
VHH-025
100
AcDbCircle
 10
-423.037177
 20
258.050004
 30
0.0
 40
0.75
100
AcDbArc
 50
2.0
 51
90.0
  0
ARC
  5
1227
100
AcDbEntity
  8
VHH-025
100
AcDbCircle
 10
-430.322734
 20
260.800004
 30
0.0
 40
2.0
100
AcDbArc
 50
270.0
 51
360.0
  0
ARC
  5
1228
100
AcDbEntity
  8
VHH-025
100
AcDbCircle
 10
-465.537753
 20
188.603448
 30
0.0
 40
99.913308
100
AcDbArc
 50
38.380382
 51
43.099978
  0
LINE
  5
1229
100
AcDbEntity
  8
VHH-025
100
AcDbLine
 10
-420.074491
 20
250.719683
 30
0.0
 11
-394.153223
 21
257.2
 31
0.0
  0
SPLINE
  5
122A
100
AcDbEntity
  8
VHH-025
100
AcDbSpline
210
0.0
220
0.0
230
1.0
 70
     8
 71
     3
 72
    10
 73
     6
 74
     0
 42
0.0000001
 43
0.0000001
 40
0.0
 40
0.0
 40
0.0
 40
0.0
 40
0.568593902059437
 40
1.355825749874721
 40
2.322054057115686
 40
2.322054057115686
 40
2.322054057115686
 40
2.322054057115686
 10
-394.1532222249534
 20
257.2000001895225
 30
0.0
 10
-393.9638609729481
 20
257.2083665587328
 30
0.0
 10
-393.512324541467
 20
257.2283163660881
 30
0.0
 10
-392.7408273215678
 20
257.2922794532037
 30
0.0
 10
-392.1574069406724
 20
257.3276103605644
 30
0.0
 10
-391.8358532034781
 20
257.3460686021149
 30
0.0
  0
ARC
  5
122B
100
AcDbEntity
  8
VHH-025
100
AcDbCircle
 10
-440.536317
 20
272.197749
 30
0.0
 40
6.0
100
AcDbArc
 50
276.0
 51
45.502135
  0
ARC
  5
122C
100
AcDbEntity
  8
VHH-025
100
AcDbCircle
 10
-440.127985
 20
270.22965
 30
0.0
 40
4.0
100
AcDbArc
 50
276.0
 51
43.450691
  0
LINE
  5
122D
100
AcDbEntity
  8
VHH-025
100
AcDbLine
 10
-391.838537
 20
257.770171
 30
0.0
 11
-391.838537
 21
321.773567
 31
0.0
  0
ARC
  5
122E
100
AcDbEntity
  8
VHH-025
100
AcDbCircle
 10
-450.980428
 20
261.234548
 30
0.0
 40
25.0
100
AcDbArc
 50
25.0
 51
54.192291
  0
SPLINE
  5
122F
100
AcDbEntity
  8
VHH-025
100
AcDbSpline
210
0.0
220
0.0
230
-1.0
 70
     8
 71
     3
 72
    16
 73
    12
 74
     0
 42
0.0000001
 43
0.0000001
 40
0.1050504003577393
 40
0.1050504003577393
 40
0.1050504003577393
 40
0.1050504003577393
 40
5.497923559405323
 40
11.75381661664571
 40
15.98342477697918
 40
18.30450869996882
 40
21.45476475459092
 40
23.94926090769282
 40
27.59481708481393
 40
29.44434721604997
 40
31.293877347286
 40
31.293877347286
 40
31.293877347286
 40
31.293877347286
 10
-260.9532384992307
 20
537.2522539681745
 30
0.0
 10
-262.7506837127093
 20
537.1692584661691
 30
0.0
 10
-266.6327667763525
 20
536.9856935326602
 30
0.0
 10
-271.8547655068177
 20
536.0740756659838
 30
0.0
 10
-276.0535236040031
 20
535.29220031262
 30
0.0
 10
-279.1265760844089
 20
534.2144393084494
 30
0.0
 10
-281.2637781930971
 20
532.5312584408306
 30
0.0
 10
-283.0442228928223
 20
529.9544913704699
 30
0.0
 10
-283.6987096459615
 20
527.2915233000872
 30
0.0
 10
-283.6968545859599
 20
524.8449122302795
 30
0.0
 10
-283.7470722344005
 20
523.6125776321819
 30
0.0
 10
-283.7721810586208
 20
522.9964103331326
 30
0.0
  0
SPLINE
  5
1230
100
AcDbEntity
  8
VHH-025
100
AcDbSpline
210
0.0
220
0.0
230
-1.0
 70
     8
 71
     3
 72
    15
 73
    11
 74
     0
 42
0.0000001
 43
0.0000001
 40
0.1051965741596208
 40
0.1051965741596208
 40
0.1051965741596208
 40
0.1051965741596208
 40
7.669253737098932
 40
15.45437869041568
 40
20.86081248323837
 40
24.06382690725172
 40
29.36972090551076
 40
33.62696527834292
 40
36.74194354924412
 40
38.79269265411739
 40
38.79269265411739
 40
38.79269265411739
 40
38.79269265411739
 10
-260.9532384992307
 20
541.873970314456
 30
0.0
 10
-263.4708395707075
 20
541.6870667424059
 30
0.0
 10
-268.5790355219087
 20
541.3039352296586
 30
0.0
 10
-275.369297066909
 20
540.0132897644485
 30
0.0
 10
-280.7074613155309
 20
538.6124199580749
 30
0.0
 10
-284.67180239972
 20
536.1014708430307
 30
0.0
 10
-287.3428297533355
 20
532.6271411282164
 30
0.0
 10
-288.6754916812769
 20
528.5457151592249
 30
0.0
 10
-288.8276729197059
 20
525.3978098963576
 30
0.0
 10
-288.9115273034131
 20
523.6788303022517
 30
0.0
 10
-288.9448167687314
 20
522.9964102658319
 30
0.0
  0
LINE
  5
1231
100
AcDbEntity
  8
VHH-025
100
AcDbLine
 10
-260.953238
 20
521.99641
 30
0.0
 11
-362.49406
 21
521.99641
 31
0.0
  0
LINE
  5
1232
100
AcDbEntity
  8
VHH-025
100
AcDbLine
 10
-260.953238
 20
522.99641
 30
0.0
 11
-362.259706
 21
522.996413
 31
0.0
  0
LINE
  5
1233
100
AcDbEntity
  8
VHH-025
100
AcDbLine
 10
-359.615801
 20
511.69641
 30
0.0
 11
-260.953238
 21
511.69641
 31
0.0
  0
LINE
  5
1234
100
AcDbEntity
  8
VHH-025
100
AcDbLine
 10
-260.953238
 20
509.09641
 30
0.0
 11
-326.748198
 21
509.09641
 31
0.0
  0
SPLINE
  5
1235
100
AcDbEntity
  8
VHH-025
100
AcDbSpline
210
0.0
220
0.0
230
1.0
 70
     8
 71
     3
 72
    16
 73
    12
 74
    10
 42
0.0000001
 43
0.0000001
 44
0.0000000001
 40
0.0
 40
0.0
 40
0.0
 40
0.0
 40
3.194959215303493
 40
6.418886637236189
 40
9.645058705998168
 40
12.33323980390375
 40
16.09204151732409
 40
21.4883039725123
 40
28.43654563334902
 40
33.42751231049396
 40
38.15289330752381
 40
38.15289330752381
 40
38.15289330752381
 40
38.15289330752381
 10
-289.0653833477426
 20
386.0001238116724
 30
0.0
 10
-289.0507773449256
 20
384.9336119096568
 30
0.0
 10
-289.0214329088974
 20
382.7909182053019
 30
0.0
 10
-288.3898199887875
 20
379.6178458988868
 30
0.0
 10
-287.1900462144992
 20
376.7820280181345
 30
0.0
 10
-285.2172851887416
 20
374.2066148826169
 30
0.0
 10
-282.1299941569343
 20
371.6390355895687
 30
0.0
 10
-276.9310324471306
 20
369.9766578205093
 30
0.0
 10
-271.2702360737941
 20
368.9053294406625
 30
0.0
 10
-265.7579494214254
 20
368.1563576141583
 30
0.0
 10
-262.5253454281895
 20
367.9496848894461
 30
0.0
 10
-260.9532232694527
 20
367.849173112932
 30
0.0
 11
-289.0653833477426
 21
386.0001238116724
 31
0.0
 11
-288.9246955052876
 21
382.808263645807
 31
0.0
 11
-288.2839280954758
 21
379.6486552605142
 31
0.0
 11
-286.9915605394744
 21
376.692649117514
 31
0.0
 11
-285.3720332374741
 21
374.5470841725141
 31
0.0
 11
-282.4609007624749
 21
372.1692914915142
 31
0.0
 11
-277.4233770599512
 21
370.2346071679653
 31
0.0
 11
-270.6139773889062
 21
368.8525296385337
 31
0.0
 11
-265.6651796464448
 21
368.2051122487614
 31
0.0
 11
-260.9532232694527
 21
367.849173112932
 31
0.0
  0
SPLINE
  5
1236
100
AcDbEntity
  8
VHH-025
100
AcDbSpline
210
0.0
220
0.0
230
1.0
 70
     8
 71
     3
 72
    16
 73
    12
 74
    10
 42
0.0000001
 43
0.0000001
 44
0.0000000001
 40
0.0
 40
0.0
 40
0.0
 40
0.0
 40
3.118083428797114
 40
6.320178756713501
 40
10.06862747037444
 40
14.74762083375841
 40
19.06180419313177
 40
22.0755857405445
 40
24.75954502662292
 40
27.43874846259851
 40
30.34745987100871
 40
30.34745987100871
 40
30.34745987100871
 40
30.34745987100871
 10
-260.9532232909641
 20
372.6328993309421
 30
0.0
 10
-261.9909317751786
 20
372.6956379791709
 30
0.0
 10
-264.0943081816668
 20
372.8228056707401
 30
0.0
 10
-267.4295199335928
 20
373.1940057179973
 30
0.0
 10
-271.2731744264449
 20
373.761965573552
 30
0.0
 10
-275.3895866044442
 20
374.6826885703971
 30
0.0
 10
-279.3818327948534
 20
375.6357564231932
 30
0.0
 10
-281.9109601228475
 20
377.9550526010391
 30
0.0
 10
-283.3394357447799
 20
380.4053804726955
 30
0.0
 10
-283.8312605613925
 20
383.1593228168747
 30
0.0
 10
-283.8282201037025
 20
385.0214485079426
 30
0.0
 10
-283.8266374357099
 20
385.9907521556074
 30
0.0
 11
-260.9532232909641
 21
372.6328993309421
 31
0.0
 11
-264.063956036487
 21
372.8468760933969
 31
0.0
 11
-267.2474499318977
 21
373.1915224439458
 31
0.0
 11
-270.9532176877946
 21
373.7555730607359
 31
0.0
 11
-275.5303925015086
 21
374.7263715049525
 31
0.0
 11
-279.6113159012238
 21
376.1257436012697
 31
0.0
 11
-281.8634207862378
 21
378.1284674470412
 31
0.0
 11
-283.1910646645719
 21
380.4610623929434
 31
0.0
 11
-283.7405376650294
 21
383.0833153313747
 31
0.0
 11
-283.8266374357099
 21
385.9907521556074
 31
0.0
  0
SPLINE
  5
1237
100
AcDbEntity
  8
VHH-025
100
AcDbSpline
210
0.0
220
0.0
230
-1.0
 70
     8
 71
     3
 72
    13
 73
     9
 74
     7
 42
0.0000001
 43
0.0000001
 44
0.0000000001
 40
0.0
 40
0.0
 40
0.0
 40
0.0
 40
3.897870773001479
 40
6.508530334872476
 40
10.44133798821843
 40
14.39359530149783
 40
18.35693930596746
 40
20.87086419409461
 40
20.87086419409461
 40
20.87086419409461
 40
20.87086419409461
 10
-281.8597129719237
 20
395.7483595217922
 30
0.0
 10
-280.5606628032799
 20
395.7737689937678
 30
0.0
 10
-278.3915535840359
 20
395.8161968547146
 30
0.0
 10
-274.9112778408187
 20
395.8528834948347
 30
0.0
 10
-271.4127791830813
 20
395.8771520161623
 30
0.0
 10
-267.4633114383325
 20
395.8860701486255
 30
0.0
 10
-263.9868020179742
 20
395.8889733560355
 30
0.0
 10
-261.8277145683415
 20
395.8854642906839
 30
0.0
 10
-260.9897404522016
 20
395.8841023699628
 30
0.0
 11
-281.8597129719237
 21
395.7483595217922
 31
0.0
 11
-277.962456743553
 21
395.817572623479
 31
0.0
 11
-275.3519628896719
 21
395.8469866819837
 31
0.0
 11
-271.4192483401802
 21
395.8740479168532
 31
0.0
 11
-267.4670065521604
 21
395.8851257957289
 31
0.0
 11
-263.5036631932762
 21
395.887387952594
 31
0.0
 11
-260.9897404522016
 21
395.8841023699628
 31
0.0
  0
LINE
  5
1238
100
AcDbEntity
  8
VHH-025
100
AcDbLine
 10
-375.674513
 20
397.500113
 30
0.0
 11
-260.953238
 21
397.500113
 31
0.0
  0
LINE
  5
1239
100
AcDbEntity
  8
VHH-025
100
AcDbLine
 10
-260.916386
 20
387.500322
 30
0.0
 11
-379.705452
 21
387.500321
 31
0.0
  0
LINE
  5
123A
100
AcDbEntity
  8
VHH-025
100
AcDbLine
 10
-260.953238
 20
386.5
 30
0.0
 11
-394.198478
 21
386.5
 31
0.0
  0
LINE
  5
123B
100
AcDbEntity
  8
VHH-025
100
AcDbLine
 10
-260.848198
 20
427.326795
 30
0.0
 11
-299.226926
 21
427.326795
 31
0.0
  0
LINE
  5
123C
100
AcDbEntity
  8
VHH-025
100
AcDbLine
 10
-260.848198
 20
429.515792
 30
0.0
 11
-300.867561
 21
429.515792
 31
0.0
  0
LINE
  5
123D
100
AcDbEntity
  8
VHH-025
100
AcDbLine
 10
-315.750778
 20
398.4
 30
0.0
 11
-260.959156
 21
398.4
 31
0.0
  0
LINE
  5
123E
100
AcDbEntity
  8
VHH-025
100
AcDbLine
 10
-260.848198
 20
420.559589
 30
0.0
 11
-299.226926
 21
427.326795
 31
0.0
  0
LINE
  5
123F
100
AcDbEntity
  8
VHH-025
100
AcDbLine
 10
-320.183906
 20
401.2
 30
0.0
 11
-260.953223
 21
401.2
 31
0.0
  0
LWPOLYLINE
  5
1240
100
AcDbEntity
  8
VHH-025
100
AcDbPolyline
 90
        6
 70
     0
 43
0.0
 10
-300.257978
 20
435.038788
 10
-299.79051
 20
435.038838
 10
-298.412382
 20
435.038966
 10
-296.474194
 20
435.039115
 10
-293.870528
 20
435.039251
 10
-260.883955
 20
435.039689
  0
LWPOLYLINE
  5
1241
100
AcDbEntity
  8
VHH-025
100
AcDbPolyline
 90
        5
 70
     0
 43
0.0
 10
-310.703905
 20
453.329798
 10
-316.301697
 20
466.258373
 10
-320.961588
 20
479.711774
 10
-323.088521
 20
487.222416
 10
-324.773829
 20
494.40884
  0
ARC
  5
1242
100
AcDbEntity
  8
VHH-025
100
AcDbCircle
 10
-293.240778
 20
519.825039
 30
0.0
 40
68.75
100
AcDbArc
 50
192.888011
 51
255.554039
  0
ARC
  5
1243
100
AcDbEntity
  8
VHH-025
100
AcDbCircle
 10
-293.240778
 20
519.825039
 30
0.0
 40
70.0
100
AcDbArc
 50
192.888011
 51
254.204256
  0
LWPOLYLINE
  5
1244
100
AcDbEntity
  8
VHH-025
100
AcDbPolyline
 90
       32
 70
     0
 43
0.0
 10
-289.180838
 20
435.623409
 10
-289.199431
 20
435.666785
 10
-289.557787
 20
436.43725
 10
-290.751653
 20
438.823938
 10
-292.259225
 20
441.78941
 10
-293.688426
 20
444.664272
 10
-294.268388
 20
445.887147
 10
-294.837587
 20
447.097435
 10
-295.995837
 20
449.568081
 10
-297.173452
 20
452.094586
 10
-298.365066
 20
454.670538
 10
-299.567919
 20
457.295212
 10
-300.778873
 20
459.967307
 10
-301.991734
 20
462.679016
 10
-303.197485
 20
465.416121
 10
-304.387194
 20
468.164184
 10
-305.554814
 20
470.915056
 10
-306.697207
 20
473.667528
 10
-307.811432
 20
476.421462
 10
-308.891949
 20
479.1709
 10
-309.930387
 20
481.902648
 10
-310.917971
 20
484.601627
 10
-311.848161
 20
487.257903
 10
-312.717
 20
489.868809
 10
-313.521009
 20
492.434266
 10
-314.254864
 20
494.949855
 10
-314.911072
 20
497.404136
 10
-315.481757
 20
499.782565
 10
-315.960544
 20
502.074085
 10
-316.34267
 20
504.274144
 10
-316.623451
 20
506.381559
 10
-316.771398
 20
508.09641
  0
LWPOLYLINE
  5
1245
100
AcDbEntity
  8
VHH-025
100
AcDbPolyline
 90
       42
 70
     0
 43
0.0
 10
-280.118559
 20
435.623409
 10
-280.133051
 20
435.666791
 10
-280.412389
 20
436.437269
 10
-281.343586
 20
438.823999
 10
-282.520922
 20
441.78951
 10
-283.639791
 20
444.664385
 10
-284.095705
 20
445.887262
 10
-284.545059
 20
447.09756
 10
-284.869785
 20
447.970629
 10
-285.464785
 20
449.568225
 10
-285.866335
 20
450.645626
 10
-286.406391
 20
452.094745
 10
-286.885379
 20
453.380975
 10
-287.365021
 20
454.670707
 10
-287.920927
 20
456.168711
 10
-288.33795
 20
457.295387
 10
-288.969447
 20
459.007461
 10
-289.3222
 20
459.967486
 10
-290.31233
 20
462.679196
 10
-291.30057
 20
465.416298
 10
-292.279182
 20
468.164356
 10
-293.242781
 20
470.915221
 10
-294.188397
 20
473.667685
 10
-295.113253
 20
476.421608
 10
-296.012428
 20
479.171034
 10
-296.878641
 20
481.902769
 10
-297.70425
 20
484.601735
 10
-298.483473
 20
487.257997
 10
-298.752348
 20
488.204708
 10
-299.21269
 20
489.868889
 10
-299.512036
 20
490.984927
 10
-299.888699
 20
492.434333
 10
-300.205842
 20
493.700915
 10
-300.506758
 20
494.949908
 10
-300.829385
 20
496.3517
 10
-301.060295
 20
497.404177
 10
-301.376544
 20
498.931318
 10
-301.542403
 20
499.782595
 10
-301.947442
 20
502.074105
 10
-302.271133
 20
504.274156
 10
-302.509271
 20
506.381565
 10
-302.634894
 20
508.09641
  0
LINE
  5
1246
100
AcDbEntity
  8
VHH-025
100
AcDbLine
 10
-363.941626
 20
399.500188
 30
0.0
 11
-317.563434
 21
399.500188
 31
0.0
  0
ARC
  5
1247
100
AcDbEntity
  8
VHH-025
100
AcDbCircle
 10
-340.756413
 20
363.927007
 30
0.0
 40
43.0
100
AcDbArc
 50
95.459702
 51
116.737455
  0
ARC
  5
1248
100
AcDbEntity
  8
VHH-025
100
AcDbCircle
 10
-358.75253
 20
399.650106
 30
0.0
 40
3.0
100
AcDbArc
 50
116.737455
 51
180.0
  0
LINE
  5
1249
100
AcDbEntity
  8
VHH-025
100
AcDbLine
 10
-361.75253
 20
399.500114
 30
0.0
 11
-361.75253
 21
399.650106
 31
0.0
  0
SPLINE
  5
124A
100
AcDbEntity
  8
VHH-025
100
AcDbSpline
210
0.0
220
0.0
230
-1.0
 70
     8
 71
     3
 72
    13
 73
     9
 74
     7
 42
0.0000001
 43
0.0000001
 44
0.0000000001
 40
0.0
 40
0.0
 40
0.0
 40
0.0
 40
0.3006954155926777
 40
1.170827037104277
 40
2.04095865861552
 40
2.525194706610215
 40
2.941104985146266
 40
3.441074961427641
 40
3.441074961427641
 40
3.441074961427641
 40
3.441074961427641
 10
-366.4975843103184
 20
397.5002089077338
 30
0.0
 10
-366.4213081730395
 20
397.5656579037154
 30
0.0
 10
-366.124309418882
 20
397.8204986830323
 30
0.0
 10
-365.7521885907394
 20
398.3972454035561
 30
0.0
 10
-365.3589681441638
 20
399.0373053491771
 30
0.0
 10
-364.8693197489104
 20
399.3853546621336
 30
0.0
 10
-364.416757211463
 20
399.5334471888654
 30
0.0
 10
-364.1094058951586
 20
399.5119327055793
 30
0.0
 10
-363.9416258502078
 20
399.5001881618559
 30
0.0
 11
-366.4975843103184
 21
397.5002089077338
 31
0.0
 11
-366.2742651126736
 21
397.7015699489552
 31
0.0
 11
-365.754606869139
 21
398.3994842335782
 31
0.0
 11
-365.2349486256062
 21
399.0973985182022
 31
0.0
 11
-364.8382722247934
 21
399.3751256922701
 31
0.0
 11
-364.4415958244008
 21
399.5001424637989
 31
0.0
 11
-363.9416258502078
 21
399.5001881618559
 31
0.0
  0
LINE
  5
124B
100
AcDbEntity
  8
VHH-025
100
AcDbLine
 10
-393.389833
 20
401.929869
 30
0.0
 11
-391.339286
 21
401.962593
 31
0.0
  0
ARC
  5
124C
100
AcDbEntity
  8
VHH-025
100
AcDbCircle
 10
-392.191477
 20
401.867066
 30
0.0
 40
1.2
100
AcDbArc
 50
89.83294
 51
177.0
  0
SPLINE
  5
124D
100
AcDbEntity
  8
VHH-025
100
AcDbSpline
210
0.0
220
0.0
230
1.0
 70
     8
 71
     3
 72
    12
 73
     8
 74
     6
 42
0.0000001
 43
0.0000001
 44
0.0000000001
 40
0.0
 40
0.0
 40
0.0
 40
0.0
 40
0.8322508665744818
 40
2.011237394673402
 40
3.686069081067093
 40
5.492156402915766
 40
5.761172455457501
 40
5.761172455457501
 40
5.761172455457501
 40
5.761172455457501
 10
-391.3392859823197
 20
401.9625931507266
 30
0.0
 10
-391.0794378480055
 20
401.8651850991477
 30
0.0
 10
-390.451482617607
 20
401.6297864666605
 30
0.0
 10
-389.2684626766578
 20
401.293842743537
 30
0.0
 10
-387.7600096486406
 20
400.9224443885221
 30
0.0
 10
-386.5320793171463
 20
400.6857687721194
 30
0.0
 10
-385.8508351335357
 20
400.5660054737323
 30
0.0
 10
-385.7625187521189
 20
400.5504793798668
 30
0.0
 11
-391.3392859823197
 21
401.9625931507266
 31
0.0
 11
-390.5567384732766
 21
401.6792896014999
 31
0.0
 11
-389.4262540076579
 21
401.344604516034
 31
0.0
 11
-387.7994805383587
 21
400.9462714175692
 31
0.0
 11
-386.0274385894972
 21
400.5972459949739
 31
0.0
 11
-385.7625187521189
 21
400.5504793798668
 31
0.0
  0
SPLINE
  5
124E
100
AcDbEntity
  8
VHH-025
100
AcDbSpline
210
0.0
220
0.0
230
-1.0
 70
     8
 71
     3
 72
    12
 73
     8
 74
     6
 42
0.0000001
 43
0.0000001
 44
0.0000000001
 40
0.0
 40
0.0
 40
0.0
 40
0.0
 40
1.479416236491443
 40
2.562291865493325
 40
3.176012830942445
 40
3.98164394269461
 40
4.832551523539382
 40
4.832551523539382
 40
4.832551523539382
 40
4.832551523539382
 10
-375.6745130812869
 20
397.5001128676517
 30
0.0
 10
-376.1772602035553
 20
397.485391236803
 30
0.0
 10
-377.047998830058
 20
397.4598939399368
 30
0.0
 10
-377.9728764756042
 20
396.8731157835532
 30
0.0
 10
-378.5536110425578
 20
396.2701985354515
 30
0.0
 10
-378.9051082572536
 20
395.5828329514037
 30
0.0
 10
-379.0141649548081
 20
395.0401995197585
 30
0.0
 10
-379.0701836708849
 20
394.7614671830674
 30
0.0
 11
-375.6745130812869
 21
397.5001128676517
 31
0.0
 11
-377.1412231907143
 21
397.3066345595702
 31
0.0
 11
-378.0686362002688
 21
396.7475954396554
 31
0.0
 11
-378.4885686675607
 21
396.3000352243257
 31
0.0
 11
-378.8632303466874
 21
395.5868240954046
 31
0.0
 11
-379.0701836708849
 21
394.7614671830674
 31
0.0
  0
SPLINE
  5
124F
100
AcDbEntity
  8
VHH-025
100
AcDbSpline
210
0.0
220
0.0
230
1.0
 70
     8
 71
     3
 72
    13
 73
     9
 74
     7
 42
0.0000001
 43
0.0000001
 44
0.0000000001
 40
0.0
 40
0.0
 40
0.0
 40
0.0
 40
7.736192774732621
 40
11.87999246488146
 40
16.02379215502848
 40
19.15845129091839
 40
22.14666940608316
 40
24.08835254624876
 40
24.08835254624876
 40
24.08835254624876
 40
24.08835254624876
 10
-385.7625187521189
 20
400.5504793798668
 30
0.0
 10
-383.184041276977
 20
400.5133228514114
 30
0.0
 10
-379.2244329958078
 20
400.4562638702141
 30
0.0
 10
-373.8832697002878
 20
400.4205834457747
 30
0.0
 10
-370.075984159672
 20
400.3889341310508
 30
0.0
 10
-366.6538492267317
 20
400.3639068774307
 30
0.0
 10
-363.9657388235058
 20
400.343661413906
 30
0.0
 10
-362.3224843006823
 20
400.3313778116761
 30
0.0
 10
-361.6752746636702
 20
400.3265398114576
 30
0.0
 11
-385.7625187521189
 21
400.5504793798668
 31
0.0
 11
-378.0269529584947
 21
400.4519882618019
 31
0.0
 11
-373.8832809724317
 21
400.4194560624614
 31
0.0
 11
-369.7396089863705
 21
400.3869238631218
 31
0.0
 11
-366.6050378693489
 21
400.3634332149336
 31
0.0
 11
-363.6169034499435
 21
400.3410681671307
 31
0.0
 11
-361.6752746636702
 21
400.3265398114576
 31
0.0
  0
SPLINE
  5
1250
100
AcDbEntity
  8
VHH-025
100
AcDbSpline
210
0.0
220
0.0
230
-1.0
 70
     8
 71
     3
 72
    13
 73
     9
 74
     0
 42
0.0000001
 43
0.0000001
 40
0.1937856429176761
 40
0.1937856429176761
 40
0.1937856429176761
 40
0.1937856429176761
 40
8.961700572298635
 40
14.47903748286709
 40
19.8035367125911
 40
25.52467147722549
 40
30.6721058665509
 40
32.29104363021298
 40
32.29104363021298
 40
32.29104363021298
 40
32.29104363021298
 10
-392.187978474576
 20
403.0670610647762
 30
0.0
 10
-389.2653082338511
 20
403.0585392610187
 30
0.0
 10
-384.5035139197861
 20
403.0437948806707
 30
0.0
 10
-377.9677311034774
 20
402.9345942277436
 30
0.0
 10
-372.4482057646291
 20
402.804695080465
 30
0.0
 10
-367.0533849560397
 20
402.6289890415815
 30
0.0
 10
-362.89354747186
 20
402.4752338087278
 30
0.0
 10
-360.6411519389657
 20
402.3575060868756
 30
0.0
 10
-360.1022386033619
 20
402.3293382813767
 30
0.0
  0
LINE
  5
1251
100
AcDbEntity
  8
VHH-025
100
AcDbLine
 10
-366.290498
 20
395.674535
 30
0.0
 11
-366.927299
 21
387.500224
 31
0.0
  0
LINE
  5
1252
100
AcDbEntity
  8
VHH-025
100
AcDbLine
 10
-379.792968
 20
386.5
 30
0.0
 11
-379.070184
 21
394.761467
 31
0.0
  0
LINE
  5
1253
100
AcDbEntity
  8
VHH-025
100
AcDbLine
 10
-391.339286
 20
401.962593
 30
0.0
 11
-392.109946
 21
386.5
 31
0.0
  0
LINE
  5
1254
100
AcDbEntity
  8
VHH-025
100
AcDbLine
 10
-385.762519
 20
400.550479
 30
0.0
 11
-386.231271
 21
386.5
 31
0.0
  0
LINE
  5
1255
100
AcDbEntity
  8
VHH-025
100
AcDbLine
 10
-393.389833
 20
401.929869
 30
0.0
 11
-394.198478
 21
386.5
 31
0.0
  0
ARC
  5
1256
100
AcDbEntity
  8
VHH-025
100
AcDbCircle
 10
-340.748646
 20
363.927007
 30
0.0
 40
43.0
100
AcDbArc
 50
63.262545
 51
84.540298
  0
LINE
  5
1257
100
AcDbEntity
  8
VHH-025
100
AcDbLine
 10
-344.847676
 20
406.731932
 30
0.0
 11
-336.657384
 21
406.731932
 31
0.0
  0
ARC
  5
1258
100
AcDbEntity
  8
VHH-025
100
AcDbCircle
 10
-312.771758
 20
450.784447
 30
0.0
 40
1.75
100
AcDbArc
 50
27.549278
 51
74.204256
  0
LINE
  5
1259
100
AcDbEntity
  8
VHH-025
100
AcDbLine
 10
-305.873856
 20
444.588335
 30
0.0
 11
-307.203776
 21
443.894568
 31
0.0
  0
LINE
  5
125A
100
AcDbEntity
  8
VHH-025
100
AcDbLine
 10
-310.391619
 20
453.248683
 30
0.0
 11
-305.873856
 21
444.588335
 31
0.0
  0
LINE
  5
125B
100
AcDbEntity
  8
VHH-025
100
AcDbLine
 10
-307.203776
 20
443.894568
 30
0.0
 11
-311.220184
 21
451.593842
 31
0.0
  0
LINE
  5
125C
100
AcDbEntity
  8
VHH-025
100
AcDbLine
 10
-300.25806
 20
435.038788
 30
0.0
 11
-300.867561
 21
429.515792
 31
0.0
  0
ARC
  5
125D
100
AcDbEntity
  8
VHH-025
100
AcDbCircle
 10
-298.87963
 20
429.29641
 30
0.0
 40
2.0
100
AcDbArc
 50
173.702494
 51
260.0
  0
LINE
  5
125E
100
AcDbEntity
  8
VHH-025
100
AcDbLine
 10
-319.75253
 20
399.500222
 30
0.0
 11
-319.75253
 21
399.650106
 31
0.0
  0
ARC
  5
125F
100
AcDbEntity
  8
VHH-025
100
AcDbCircle
 10
-322.75253
 20
399.650106
 30
0.0
 40
3.0
100
AcDbArc
 50
0.0
 51
63.262545
  0
SPLINE
  5
1260
100
AcDbEntity
  8
VHH-025
100
AcDbSpline
210
0.0
220
0.0
230
-1.0
 70
     8
 71
     3
 72
    13
 73
     9
 74
     7
 42
0.0000001
 43
0.0000001
 44
0.0000000001
 40
0.0
 40
0.0
 40
0.0
 40
0.0
 40
0.3006954155913268
 40
1.170827037102926
 40
2.040958658615255
 40
2.52519470660995
 40
2.941104985144267
 40
3.44107496142746
 40
3.44107496142746
 40
3.44107496142746
 40
3.44107496142746
 10
-315.0074754340821
 20
397.5002089077338
 30
0.0
 10
-315.0837515713603
 20
397.5656579037155
 30
0.0
 10
-315.3807503255164
 20
397.8204986830334
 30
0.0
 10
-315.7528711536592
 20
398.3972454035564
 30
0.0
 10
-316.1460916002364
 20
399.0373053491769
 30
0.0
 10
-316.6357399954896
 20
399.3853546621331
 30
0.0
 10
-317.0883025329368
 20
399.5334471888659
 30
0.0
 10
-317.3956538492413
 20
399.5119327055795
 30
0.0
 10
-317.5634338941927
 20
399.5001881618559
 30
0.0
 11
-315.0074754340821
 21
397.5002089077338
 31
0.0
 11
-315.230794631725
 21
397.7015699489552
 31
0.0
 11
-315.7504528752597
 21
398.3994842335782
 31
0.0
 11
-316.2701111187943
 21
399.0973985182022
 31
0.0
 11
-316.6667875196071
 21
399.3751256922701
 31
0.0
 11
-317.0634639199979
 21
399.5001424637989
 31
0.0
 11
-317.5634338941927
 21
399.5001881618559
 31
0.0
  0
LWPOLYLINE
  5
1261
100
AcDbEntity
  8
VHH-025
100
AcDbPolyline
 90
        5
 70
     0
 43
0.0
 10
-300.3741
 20
435.62732
 10
-300.996588
 20
436.660375
 10
-303.019548
 20
439.786603
 10
-305.375839
 20
443.463103
 10
-306.019395
 20
444.512355
  0
LWPOLYLINE
  5
1262
100
AcDbEntity
  8
VHH-025
100
AcDbPolyline
 90
        3
 70
     0
 43
0.0
 10
-300.25806
 20
435.038788
 10
-300.270921
 20
435.341956
 10
-300.374119
 20
435.62731
  0
SPLINE
  5
1263
100
AcDbEntity
  8
VHH-025
100
AcDbSpline
210
0.0
220
0.0
230
-1.0
 70
     8
 71
     3
 72
    11
 73
     7
 74
     5
 42
0.0000001
 43
0.0000001
 44
0.0000000001
 40
0.0
 40
0.0
 40
0.0
 40
0.0
 40
2.057130867814022
 40
4.132182001842799
 40
6.210229597500894
 40
8.264473509482114
 40
8.264473509482114
 40
8.264473509482114
 40
8.264473509482114
 10
-289.0334193196558
 20
387.5002914780875
 30
0.0
 10
-288.9955635097621
 20
388.1854217674559
 30
0.0
 10
-288.9195221169877
 20
389.5616507157162
 30
0.0
 10
-288.5894802051209
 20
391.6076974157764
 30
0.0
 10
-288.1657030552678
 20
393.6349223745932
 30
0.0
 10
-287.7558981501246
 20
394.9508101502671
 30
0.0
 10
-287.5521760192114
 20
395.6049640130891
 30
0.0
 11
-289.0334193196558
 21
387.5002914780875
 31
0.0
 11
-288.884271781857
 21
389.5520084223276
 31
0.0
 11
-288.5739577642034
 21
391.6037253665677
 31
0.0
 11
-288.1317861018651
 21
393.6341849280574
 31
0.0
 11
-287.5521760192114
 21
395.6049640130891
 31
0.0
  0
SPLINE
  5
1264
100
AcDbEntity
  8
VHH-025
100
AcDbSpline
210
0.0
220
0.0
230
-1.0
 70
     8
 71
     3
 72
    12
 73
     8
 74
     6
 42
0.0000001
 43
0.0000001
 44
0.0000000001
 40
0.0
 40
0.0
 40
0.0
 40
0.0
 40
2.128122853362889
 40
4.257937900599092
 40
5.852538398869365
 40
7.181179032202082
 40
8.513715579531304
 40
8.513715579531304
 40
8.513715579531304
 40
8.513715579531304
 10
-283.801606930212
 20
387.5003214598659
 30
0.0
 10
-283.7445934613532
 20
388.2078202297928
 30
0.0
 10
-283.6305211889206
 20
389.6233803429404
 30
0.0
 10
-283.2546360705062
 20
391.5424078181538
 30
0.0
 10
-282.7992578391458
 20
393.1644269696805
 30
0.0
 10
-282.3593870853081
 20
394.5140593928142
 30
0.0
 10
-282.0264334890135
 20
395.3365247874424
 30
0.0
 10
-281.8597129719237
 20
395.7483595217922
 30
0.0
 11
-283.801606930212
 21
387.5003214598659
 31
0.0
 11
-283.5907486819378
 21
389.6179724410572
 31
0.0
 11
-283.1887248278926
 21
391.7095003409936
 31
0.0
 11
-282.7637737927034
 21
393.2464347464824
 31
0.0
 11
-282.3453575256717
 21
394.5074715262894
 31
0.0
 11
-281.8597129719237
 21
395.7483595217922
 31
0.0
  0
ARC
  5
1265
100
AcDbEntity
  8
VHH-025
100
AcDbCircle
 10
-349.832803
 20
438.450836
 30
0.0
 40
68.75
100
AcDbArc
 50
71.958883
 51
97.478306
  0
ARC
  5
1266
100
AcDbEntity
  8
VHH-025
100
AcDbCircle
 10
-349.832803
 20
438.450836
 30
0.0
 40
70.0
100
AcDbArc
 50
70.213075
 51
97.478306
  0
LINE
  5
1267
100
AcDbEntity
  8
VHH-025
100
AcDbLine
 10
-354.624903
 20
557.396535
 30
0.0
 11
-350.483595
 21
564.53552
 31
0.0
  0
ARC
  5
1268
100
AcDbEntity
  8
VHH-025
100
AcDbCircle
 10
-353.759908
 20
556.894754
 30
0.0
 40
1.0
100
AcDbArc
 50
149.882083
 51
232.968098
  0
ARC
  5
1269
100
AcDbEntity
  8
VHH-025
100
AcDbCircle
 10
-358.552906
 20
504.880948
 30
0.0
 40
1.75
100
AcDbArc
 50
97.478306
 51
192.888011
  0
LINE
  5
126A
100
AcDbEntity
  8
VHH-025
100
AcDbLine
 10
-362.49406
 20
521.99641
 30
0.0
 11
-362.05359
 21
513.591738
 31
0.0
  0
ARC
  5
126B
100
AcDbEntity
  8
VHH-025
100
AcDbCircle
 10
-358.552906
 20
504.880948
 30
0.0
 40
3.0
100
AcDbArc
 50
97.478306
 51
192.888011
  0
SPLINE
  5
126C
100
AcDbEntity
  8
VHH-025
100
AcDbSpline
210
0.0
220
0.0
230
1.0
 70
     8
 71
     3
 72
    13
 73
     9
 74
     7
 42
0.0000001
 43
0.0000001
 44
0.0000000001
 40
0.0
 40
0.0
 40
0.0
 40
0.0
 40
0.5662857353291352
 40
1.132571470271718
 40
1.887239328275265
 40
2.453525063339937
 40
3.017635193568062
 40
3.458422500339405
 40
3.458422500339405
 40
3.458422500339405
 40
3.458422500339405
 10
-362.053590189409
 20
513.5917383975652
 30
0.0
 10
-362.0234480524413
 20
513.4045803555511
 30
0.0
 10
-361.9631637785265
 20
513.030264271651
 30
0.0
 10
-361.6769590772485
 20
512.4577315852042
 30
0.0
 10
-361.2080408528547
 20
512.0140429111561
 30
0.0
 10
-360.6232476549494
 20
511.7554670906517
 30
0.0
 10
-360.0969636768878
 20
511.7082645752549
 30
0.0
 10
-359.762507096567
 20
511.7000246586339
 30
0.0
 10
-359.6158013633812
 20
511.6964103090281
 30
0.0
 11
-362.053590189409
 21
513.5917383975652
 31
0.0
 11
-361.9352955023805
 21
513.0379461070283
 31
0.0
 11
-361.6820244893806
 21
512.5314549150284
 31
0.0
 11
-361.134607766382
 21
512.0119758420282
 31
0.0
 11
-360.6155555223813
 21
511.7855596285285
 31
0.0
 11
-360.0563311086752
 21
511.7114766065792
 31
0.0
 11
-359.6158013633812
 21
511.6964103090281
 31
0.0
  0
LINE
  5
126D
100
AcDbEntity
  8
VHH-025
100
AcDbLine
 10
-286.748198
 20
509.09641
 30
0.0
 11
-287.748198
 21
508.09641
 31
0.0
  0
SPLINE
  5
126E
100
AcDbEntity
  8
VHH-025
100
AcDbSpline
210
0.0
220
0.0
230
-1.0
 70
     8
 71
     3
 72
    10
 73
     6
 74
     4
 42
0.0000001
 43
0.0000001
 44
0.0000000001
 40
0.0
 40
0.0
 40
0.0
 40
0.0
 40
2.115247435386793
 40
5.307478048340049
 40
8.474997652261938
 40
8.474997652261938
 40
8.474997652261938
 40
8.474997652261938
 10
-288.9595036631126
 20
521.9964104312579
 30
0.0
 10
-288.9755765048092
 20
521.2910621490212
 30
0.0
 10
-289.0159057131335
 20
519.5212358574117
 30
0.0
 10
-288.702269234847
 20
516.7034560000086
 30
0.0
 10
-288.2791358064218
 20
514.6262872715702
 30
0.0
 10
-288.0683911413161
 20
513.5917383594883
 30
0.0
 11
-288.9595036631126
 21
521.9964104312579
 31
0.0
 11
-288.9701189063216
 21
519.8811896320217
 31
0.0
 11
-288.6540451158125
 21
516.7046453390471
 31
0.0
 11
-288.0683911413161
 21
513.5917383594883
 31
0.0
  0
SPLINE
  5
126F
100
AcDbEntity
  8
VHH-025
100
AcDbSpline
210
0.0
220
0.0
230
-1.0
 70
     8
 71
     3
 72
    10
 73
     6
 74
     4
 42
0.0000001
 43
0.0000001
 44
0.0000000001
 40
0.0
 40
0.0
 40
0.0
 40
0.0
 40
2.205976788938416
 40
5.344893463450999
 40
8.649841197213188
 40
8.649841197213188
 40
8.649841197213188
 40
8.649841197213188
 10
-283.7798293839096
 20
521.9964102203817
 30
0.0
 10
-283.7725514054328
 20
521.2608490372263
 30
0.0
 10
-283.7549174848119
 20
519.4786470759318
 30
0.0
 10
-283.4082122463138
 20
516.6077492694259
 30
0.0
 10
-282.9370506016791
 20
514.5115216315794
 30
0.0
 10
-282.6953998606004
 20
513.4364023642879
 30
0.0
 11
-283.7798293839096
 21
521.9964102203817
 31
0.0
 11
-283.7245057954623
 21
519.7911272693986
 31
0.0
 11
-283.3643550459328
 21
516.6729404040638
 31
0.0
 11
-282.6953998606004
 21
513.4364023642879
 31
0.0
  0
LINE
  5
1270
100
AcDbEntity
  8
VHH-025
100
AcDbLine
 10
-334.865171
 20
510.89641
 30
0.0
 11
-326.748198
 21
510.89641
 31
0.0
  0
LINE
  5
1271
100
AcDbEntity
  8
VHH-025
100
AcDbLine
 10
-334.865171
 20
510.29641
 30
0.0
 11
-326.748198
 21
510.29641
 31
0.0
  0
LINE
  5
1272
100
AcDbEntity
  8
VHH-025
100
AcDbLine
 10
-334.865171
 20
510.29641
 30
0.0
 11
-334.865171
 21
510.89641
 31
0.0
  0
LINE
  5
1273
100
AcDbEntity
  8
VHH-025
100
AcDbLine
 10
-349.526645
 20
513.591739
 30
0.0
 11
-349.871944
 21
521.99641
 31
0.0
  0
LINE
  5
1274
100
AcDbEntity
  8
VHH-025
100
AcDbLine
 10
-354.362168
 20
556.096453
 30
0.0
 11
-353.479406
 21
555.430474
 31
0.0
  0
LINE
  5
1275
100
AcDbEntity
  8
VHH-025
100
AcDbLine
 10
-326.748198
 20
509.09641
 30
0.0
 11
-326.748198
 21
511.69641
 31
0.0
  0
LINE
  5
1276
100
AcDbEntity
  8
VHH-025
100
AcDbLine
 10
-326.748198
 20
509.09641
 30
0.0
 11
-326.748198
 21
508.09641
 31
0.0
  0
LINE
  5
1277
100
AcDbEntity
  8
VHH-025
100
AcDbLine
 10
-326.13618
 20
504.317899
 30
0.0
 11
-326.059244
 21
503.834835
 31
0.0
  0
ARC
  5
1278
100
AcDbEntity
  8
VHH-025
100
AcDbCircle
 10
-329.082943
 20
502.156748
 30
0.0
 40
1.75
100
AcDbArc
 50
9.049278
 51
71.958883
  0
LWPOLYLINE
  5
1279
100
AcDbEntity
  8
VHH-025
100
AcDbPolyline
 90
        2
 70
     0
 43
0.0
 10
-326.387655
 20
504.407828
 10
-326.636117
 20
508.09641
  0
LINE
  5
127A
100
AcDbEntity
  8
VHH-025
100
AcDbLine
 10
-326.748198
 20
508.09641
 30
0.0
 11
-287.748198
 21
508.09641
 31
0.0
  0
LINE
  5
127B
100
AcDbEntity
  8
VHH-025
100
AcDbLine
 10
-324.563341
 20
494.442364
 30
0.0
 11
-326.044671
 21
494.206439
 31
0.0
  0
LINE
  5
127C
100
AcDbEntity
  8
VHH-025
100
AcDbLine
 10
-324.85131
 20
496.250462
 30
0.0
 11
-324.563341
 21
494.442364
 31
0.0
  0
LINE
  5
127D
100
AcDbEntity
  8
VHH-025
100
AcDbLine
 10
-326.044671
 20
494.206439
 30
0.0
 11
-327.354724
 21
502.431995
 31
0.0
  0
LWPOLYLINE
  5
127E
100
AcDbEntity
  8
VHH-025
100
AcDbPolyline
 90
        2
 70
     0
 43
0.0
 10
-326.059244
 20
503.834835
 10
-324.85131
 20
496.250462
  0
LINE
  5
127F
100
AcDbEntity
  8
VHH-025
100
AcDbLine
 10
7.146777
 20
52.0
 30
0.0
 11
7.146777
 21
26.0
 31
0.0
  0
SPLINE
  5
1280
100
AcDbEntity
  8
VHH-025
100
AcDbSpline
210
0.0
220
0.0
230
1.0
 70
     8
 71
     3
 72
    11
 73
     7
 74
     5
 42
0.0000001
 43
0.0000001
 44
0.0000000001
 40
0.0
 40
0.0
 40
0.0
 40
0.0
 40
13.28372143960388
 40
19.56485780860593
 40
27.05038666949639
 40
37.96817867755221
 40
37.96817867755221
 40
37.96817867755221
 40
37.96817867755221
 10
-13.02199904926783
 20
0.9999761779304208
 30
0.0
 10
-13.32467272786053
 20
5.417824313683317
 30
0.0
 10
-13.77046403047087
 20
11.92462822319059
 30
0.0
 10
-14.62859480281401
 20
20.90095497708359
 30
0.0
 10
-15.52015953922258
 20
29.08104528840249
 30
0.0
 10
-16.311298508831
 20
35.16444930666241
 30
0.0
 10
-16.78064264411841
 20
38.77343598060588
 30
0.0
 11
-13.02199904926783
 21
0.9999761779304208
 31
0.0
 11
-14.01063374295517
 21
14.24685719677518
 31
0.0
 11
-14.60298273098851
 21
20.50000014751412
 31
0.0
 11
-15.4171101481279
 21
27.94112498693766
 31
0.0
 11
-16.78064264411841
 21
38.77343598060588
 31
0.0
  0
SPLINE
  5
1281
100
AcDbEntity
  8
VHH-025
100
AcDbSpline
210
0.0
220
0.0
230
-1.0
 70
     8
 71
     3
 72
    11
 73
     7
 74
     5
 42
0.0000001
 43
0.0000001
 44
0.0000000001
 40
0.0
 40
0.0
 40
0.0
 40
0.0
 40
13.28372143960388
 40
19.56485780860576
 40
27.05038666949642
 40
37.96817867755224
 40
37.96817867755224
 40
37.96817867755224
 40
37.96817867755224
 10
-43.02200221707244
 20
0.9999761779304208
 30
0.0
 10
-42.71932853847907
 20
5.417824313683254
 30
0.0
 10
-42.27353723586773
 20
11.92462822319038
 30
0.0
 10
-41.41540646352924
 20
20.90095497708383
 30
0.0
 10
-40.52384172711646
 20
29.0810452884023
 30
0.0
 10
-39.7327027575088
 20
35.16444930666236
 30
0.0
 10
-39.26335862222186
 20
38.77343598060588
 30
0.0
 11
-43.02200221707244
 21
0.9999761779304208
 31
0.0
 11
-42.03336752338509
 21
14.24685719677518
 31
0.0
 11
-41.44101853535357
 21
20.50000014751412
 31
0.0
 11
-40.62689111821237
 21
27.94112498693766
 31
0.0
 11
-39.26335862222186
 21
38.77343598060588
 31
0.0
  0
INSERT
  5
1282
100
AcDbEntity
  8
VHH-050
100
AcDbBlockReference
  2
A$C605007EB
 10
-54.034688
 20
7.399998
 30
0.0
  0
INSERT
  5
1283
100
AcDbEntity
  8
VHH-050
100
AcDbBlockReference
  2
A$C7A7B4A19
 10
-5.730895
 20
21.322331
 30
0.0
  0
INSERT
  5
1284
100
AcDbEntity
  8
VHH-050
100
AcDbBlockReference
  2
A$C32063EEB
 10
-8.838839
 20
-8.838837
 30
0.0
  0
LINE
  5
1285
100
AcDbEntity
  8
VHH-025
100
AcDbLine
 10
-5.053223
 20
19.9
 30
0.0
 11
-14.542316
 21
19.9
 31
0.0
  0
LINE
  5
1286
100
AcDbEntity
  8
VHH-025
100
AcDbLine
 10
-5.053223
 20
20.5
 30
0.0
 11
-5.053223
 21
19.9
 31
0.0
  0
LINE
  5
1287
100
AcDbEntity
  8
VHH-025
100
AcDbLine
 10
-14.722001
 20
1.0
 30
0.0
 11
-14.722001
 21
0.0
 31
0.0
  0
LINE
  5
1288
100
AcDbEntity
  8
VHH-025
100
AcDbLine
 10
-41.322001
 20
1.0
 30
0.0
 11
-41.322001
 21
0.0
 31
0.0
  0
LINE
  5
1289
100
AcDbEntity
  8
VHH-025
100
AcDbLine
 10
-41.322001
 20
0.0
 30
0.0
 11
-14.722001
 21
0.0
 31
0.0
  0
LINE
  5
128A
100
AcDbEntity
  8
VHH-025
100
AcDbLine
 10
-43.022002
 20
0.999976
 30
0.0
 11
-13.021999
 21
0.999976
 31
0.0
  0
LINE
  5
128B
100
AcDbEntity
  8
VHH-025
100
AcDbLine
 10
-0.053223
 20
26.0
 30
0.0
 11
7.146777
 21
26.0
 31
0.0
  0
SPLINE
  5
128C
100
AcDbEntity
  8
VHH-025
100
AcDbSpline
210
0.0
220
0.0
230
-1.0
 70
     8
 71
     3
 72
    12
 73
     8
 74
     6
 42
0.0000001
 43
0.0000001
 44
0.0000000001
 40
0.0
 40
0.0
 40
0.0
 40
0.0
 40
0.7759383456504823
 40
1.313673913556431
 40
1.814968045952186
 40
2.371579175917442
 40
2.926100784724593
 40
2.926100784724593
 40
2.926100784724593
 40
2.926100784724593
 10
-16.78064264411841
 20
38.77343598060588
 30
0.0
 10
-16.83206682881112
 20
39.02823095790009
 30
0.0
 10
-16.91912865574029
 20
39.45960223482289
 30
0.0
 10
-17.23211490033747
 20
39.99438635651822
 30
0.0
 10
-17.68083092734043
 20
40.31079526506728
 30
0.0
 10
-18.21315783036116
 20
40.42296048280333
 30
0.0
 10
-18.57919049777293
 20
40.47435237564193
 30
0.0
 10
-18.76186266332661
 20
40.50000000000046
 30
0.0
 11
-16.78064264411841
 21
38.77343598060588
 31
0.0
 11
-16.98357651065089
 21
39.52236732730261
 31
0.0
 11
-17.2686685693443
 21
39.9783081777
 31
0.0
 11
-17.67689707887257
 21
40.26924681587433
 31
0.0
 11
-18.21364769056162
 21
40.41660600579007
 31
0.0
 11
-18.76186266332661
 21
40.50000000000046
 31
0.0
  0
SPLINE
  5
128D
100
AcDbEntity
  8
VHH-025
100
AcDbSpline
210
0.0
220
0.0
230
-1.0
 70
     8
 71
     3
 72
    12
 73
     8
 74
     6
 42
0.0000001
 43
0.0000001
 44
0.0000000001
 40
0.0
 40
0.0
 40
0.0
 40
0.0
 40
0.7759383456504823
 40
1.313673913556431
 40
1.814968045952186
 40
2.371579175917442
 40
2.926100784724593
 40
2.926100784724593
 40
2.926100784724593
 40
2.926100784724593
 10
-39.26335862222186
 20
38.77343598060588
 30
0.0
 10
-39.21193443752914
 20
39.02823095790009
 30
0.0
 10
-39.12487261059998
 20
39.45960223482289
 30
0.0
 10
-38.8118863660028
 20
39.99438635651822
 30
0.0
 10
-38.36317033899982
 20
40.31079526506728
 30
0.0
 10
-37.83084343597912
 20
40.42296048280333
 30
0.0
 10
-37.46481076856734
 20
40.47435237564193
 30
0.0
 10
-37.28213860301366
 20
40.50000000000046
 30
0.0
 11
-39.26335862222186
 21
38.77343598060588
 31
0.0
 11
-39.06042475568938
 21
39.52236732730261
 31
0.0
 11
-38.77533269699597
 21
39.9783081777
 31
0.0
 11
-38.3671041874677
 21
40.26924681587433
 31
0.0
 11
-37.83035357577864
 21
40.41660600579007
 31
0.0
 11
-37.28213860301366
 21
40.50000000000046
 31
0.0
  0
ARC
  5
128E
100
AcDbEntity
  8
VHH-025
100
AcDbCircle
 10
-28.515172
 20
-76.966469
 30
0.0
 40
117.793171
100
AcDbArc
 50
89.760116
 51
94.268287
  0
ARC
  5
128F
100
AcDbEntity
  8
VHH-025
100
AcDbCircle
 10
-27.528829
 20
-76.966469
 30
0.0
 40
117.793171
100
AcDbArc
 50
85.731713
 51
90.239884
  0
LINE
  5
1290
100
AcDbEntity
  8
VHH-025
100
AcDbLine
 10
11.946777
 20
47.5
 30
0.0
 11
11.946777
 21
30.5
 31
0.0
  0
LINE
  5
1291
100
AcDbEntity
  8
VHH-025
100
AcDbLine
 10
7.146777
 20
30.5
 30
0.0
 11
11.946777
 21
30.5
 31
0.0
  0
LINE
  5
1292
100
AcDbEntity
  8
VHH-025
100
AcDbLine
 10
7.146777
 20
39.0
 30
0.0
 11
11.946777
 21
39.0
 31
0.0
  0
LINE
  5
1293
100
AcDbEntity
  8
VHH-025
100
AcDbLine
 10
-0.053223
 20
52.0
 30
0.0
 11
7.146777
 21
52.0
 31
0.0
  0
LINE
  5
1294
100
AcDbEntity
  8
VHH-025
100
AcDbLine
 10
7.146777
 20
47.5
 30
0.0
 11
11.946777
 21
47.5
 31
0.0
  0
ARC
  5
136E
100
AcDbEntity
  8
VHH-025
100
AcDbCircle
 10
-370.89623
 20
147.1715
 30
0.0
 40
465.913779
100
AcDbArc
 50
70.183886
 51
82.138589
  0
ARC
  5
136F
100
AcDbEntity
  8
VHH-025
100
AcDbCircle
 10
-363.398531
 20
90.893171
 30
0.0
 40
516.978761
100
AcDbArc
 50
73.081305
 51
85.418487
  0
SPLINE
  5
1370
100
AcDbEntity
  8
VHH-025
100
AcDbSpline
210
0.0
220
0.0
230
-1.0
 70
     8
 71
     3
 72
    12
 73
     8
 74
     6
 42
0.0000001
 43
0.0000001
 44
0.0000000001
 40
0.0
 40
0.0
 40
0.0
 40
0.0
 40
0.2726448924860046
 40
0.7202654768540803
 40
1.190419341255433
 40
1.81124468762639
 40
1.828039750959963
 40
1.828039750959963
 40
1.828039750959963
 40
1.828039750959963
 10
-333.2569462071114
 20
610.7775232621093
 30
0.0
 10
-333.2035382956353
 20
610.8512721637355
 30
0.0
 10
-333.0624468030481
 20
611.0460999021647
 30
0.0
 10
-332.7318118202226
 20
611.2869121757767
 30
0.0
 10
-332.2224470757956
 20
611.4070348929852
 30
0.0
 10
-331.8514401754746
 20
611.3776636675083
 30
0.0
 10
-331.6397243848935
 20
611.3591311108149
 30
0.0
 10
-331.6341477439054
 20
611.3586429591519
 30
0.0
 11
-333.2569462071114
 21
610.7775232621093
 31
0.0
 11
-333.0882742421399
 21
610.9917311182475
 31
0.0
 11
-332.726431826255
 21
611.2552349201491
 31
0.0
 11
-332.2715469753438
 21
611.3740811595639
 31
0.0
 11
-331.6508789371873
 21
611.3601062854118
 31
0.0
 11
-331.6341477439054
 21
611.3586429591519
 31
0.0
  0
LINE
  5
1371
100
AcDbEntity
  8
VHH-025
100
AcDbLine
 10
-307.169753
 20
608.706532
 30
0.0
 11
-307.152221
 21
608.261178
 31
0.0
  0
ARC
  5
1372
100
AcDbEntity
  8
VHH-025
100
AcDbCircle
 10
-377.012421
 20
115.327919
 30
0.0
 40
498.102065
100
AcDbArc
 50
81.938655
 51
84.772972
  0
ARC
  5
1373
100
AcDbEntity
  8
VHH-025
100
AcDbCircle
 10
-737.124023
 20
-3316.281109
 30
0.0
 40
3948.025825
100
AcDbArc
 50
83.747627
 51
84.083725
  0
SPLINE
  5
1374
100
AcDbEntity
  8
VHH-025
100
AcDbSpline
210
0.0
220
0.0
230
-1.0
 70
     8
 71
     3
 72
    11
 73
     7
 74
     5
 42
0.0000001
 43
0.0000001
 44
0.0000000001
 40
0.0
 40
0.0
 40
0.0
 40
0.0
 40
0.6268006055070936
 40
1.215244760831706
 40
1.618964794629464
 40
1.942964802856018
 40
1.942964802856018
 40
1.942964802856018
 40
1.942964802856018
 10
-331.7900705025185
 20
609.9693733331474
 30
0.0
 10
-331.6973181551462
 20
610.1658086994235
 30
0.0
 10
-331.5174893496079
 20
610.5466587618068
 30
0.0
 10
-330.9667955074471
 20
610.7386325925931
 30
0.0
 10
-330.5302995334018
 20
610.75329048264
 30
0.0
 10
-330.2885658533056
 20
610.7273953489036
 30
0.0
 10
-330.1809396923963
 20
610.71586615765
 30
0.0
 11
-331.7900705025185
 21
609.9693733331474
 31
0.0
 11
-331.4496850015548
 21
610.4956971021315
 31
0.0
 11
-330.9069310294344
 21
610.7230396843355
 31
0.0
 11
-330.5037407098516
 21
610.7437141101895
 31
0.0
 11
-330.1809396923963
 21
610.71586615765
 31
0.0
  0
LINE
  5
13B1
100
AcDbEntity
  8
VHH-025
100
AcDbLine
 10
-11.305941
 20
585.5
 30
0.0
 11
-12.241059
 21
593.366079
 31
0.0
  0
LINE
  5
13B2
100
AcDbEntity
  8
VHH-025
100
AcDbLine
 10
-18.1961
 20
593.366079
 30
0.0
 11
-19.131218
 21
585.5
 31
0.0
  0
LINE
  5
13B3
100
AcDbEntity
  8
VHH-025
100
AcDbLine
 10
-19.71858
 20
585.5
 30
0.0
 11
-18.1961
 21
597.86657
 31
0.0
  0
LINE
  5
13B4
100
AcDbEntity
  8
VHH-025
100
AcDbLine
 10
-10.71858
 20
585.5
 30
0.0
 11
-12.241059
 21
597.86657
 31
0.0
  0
ARC
  5
13B5
100
AcDbEntity
  8
VHH-025
100
AcDbCircle
 10
-15.21858
 20
597.5
 30
0.0
 40
3.0
100
AcDbArc
 50
7.018512
 51
172.981488
  0
SPLINE
  5
13B6
100
AcDbEntity
  8
VHH-025
100
AcDbSpline
210
0.0
220
0.0
230
-1.0
 70
     8
 71
     3
 72
    16
 73
    12
 74
    10
 42
0.0000001
 43
0.0000001
 44
0.0000000001
 40
0.0
 40
0.0
 40
0.0
 40
0.0
 40
1.162224389485535
 40
2.355902817985682
 40
3.515791744985435
 40
4.373377683802992
 40
5.515721028603126
 40
6.396471174835522
 40
7.295099172860427
 40
7.900392698522047
 40
8.766036361284736
 40
8.766036361284736
 40
8.766036361284736
 40
8.766036361284736
 10
-18.19609980652239
 20
593.3660786931409
 30
0.0
 10
-18.10306791981224
 20
593.7460297604173
 30
0.0
 10
-17.91448636357764
 20
594.5162147592792
 30
0.0
 10
-17.14087990625905
 20
595.4535351464775
 30
0.0
 10
-16.17687625282609
 20
595.9699890903745
 30
0.0
 10
-15.12607081704009
 20
596.1533780705188
 30
0.0
 10
-14.15095427123205
 20
595.9591604822834
 30
0.0
 10
-13.32542101322216
 20
595.4214792795412
 30
0.0
 10
-12.7707458528396
 20
594.8389829800001
 30
0.0
 10
-12.39411851827871
 20
594.1342862602878
 30
0.0
 10
-12.29776393965219
 20
593.6506800206957
 30
0.0
 10
-12.24105945830342
 20
593.3660786931409
 30
0.0
 11
-18.19609980652239
 21
593.3660786931409
 31
0.0
 11
-17.83673966895185
 21
594.4713505253344
 31
0.0
 11
-17.08491110095383
 21
595.3985085458511
 31
0.0
 11
-16.06455255842411
 21
595.9500615964848
 31
0.0
 11
-15.21857963240836
 21
596.0907152523418
 31
0.0
 11
-14.09849487477549
 21
595.8663083604519
 31
0.0
 11
-13.35224816386289
 21
595.3985085458511
 31
0.0
 11
-12.74206616617266
 21
594.7388039085104
 31
0.0
 11
-12.45877302555891
 21
594.2038971421584
 31
0.0
 11
-12.24105945830342
 21
593.3660786931409
 31
0.0
  0
ENDSEC
  0
SECTION
  2
OBJECTS
  0
DICTIONARY
  5
C
100
AcDbDictionary
  3
ACAD_GROUP
350
D
  3
ACAD_MLINESTYLE
350
E
  3
AMACAD
350
975
  0
DICTIONARY
  5
D
102
{ACAD_REACTORS
330
C
102
}
100
AcDbDictionary
  0
DICTIONARY
  5
E
102
{ACAD_REACTORS
330
C
102
}
100
AcDbDictionary
  3
STANDARD
350
1B
  0
DICTIONARY
  5
975
102
{ACAD_REACTORS
330
C
102
}
100
AcDbDictionary
  3
AM_LOADER
350
976
  0
MLINESTYLE
  5
1B
102
{ACAD_REACTORS
330
E
102
}
100
AcDbMlineStyle
  2
STANDARD
 70
     0
  3

 62
     0
 51
90.0
 52
90.0
 71
     2
 49
0.5
 62
   256
  6
BYLAYER
 49
-0.5
 62
   256
  6
BYLAYER
  0
AMLOADER
  5
976
102
{ACAD_REACTORS
330
975
102
}
100
AMLoader
 90
        1
 70
     3
 70
     0
 70
   921
 70
   861
280
     0
  0
ENDSEC
  0
EOF
